rukind.com

Grateful Dead Music Forum

A place to talk about the music of the Grateful Dead 

 #29521  by st. stephen
 Fri Nov 09, 2007 9:56 am
maybe it's not 100% correct (right now I haven't got the studio version around), but that's more or less what he does there:
after ...gently down in F#
E|------------6---------6--9--8---8--9--6----
B|---------7---------7-----------------------
G|------6------------------------------------
D|--/8---------------------------------------
A|-------------------------------------------
E|-------------------------------------------




after ...in jade in E:
E|------------4---------4--7--6---6--7--4-----
B|---------5---------5------------------------
G|------4-------------------------------------
D|--/6----------------------------------------
A|--------------------------------------------
E|--------------------------------------------
 #100239  by jdp204
 Thu Jun 30, 2011 11:00 pm
st. stephen wrote:maybe it's not 100% correct (right now I haven't got the studio version around), but that's more or less what he does there:
after ...gently down in F#
E|------------6---------6--9--8---8--9--6----
B|---------7---------7-----------------------
G|------6------------------------------------
D|--/8---------------------------------------
A|-------------------------------------------
E|-------------------------------------------




after ...in jade in E:
E|------------4---------4--7--6---6--7--4-----
B|---------5---------5------------------------
G|------4-------------------------------------
D|--/6----------------------------------------
A|--------------------------------------------
E|--------------------------------------------

NIce thanks for this however longago it was. Ive been toying with something similar After the face in jade bit, i just strum out the E and do the same little hammer on off thing like so:

E|------------0---------4-h-7--6---6-h7--4/0
B|---------0---------(0)------------------------
G|------1-------------------------------------
D|--/2----------------------------------------
A|--------------------------------------------
E|--------------------------------------------
then bac to E.

sounds alright to me at least :smile:
 #127269  by NotStStephen
 Sun Apr 28, 2013 11:17 am
Heres how me and my buddy Dave worked out the licks for the coda.

E|----------------------------------------------------
B|----------------------13--12--12h13--12--11h12------
G|--------------13--13----------------------------------13- then B F# E chords
D|----------14----------------------------------------
A|------14--------------------------------------------
E|--12------------------------------------------------
Same lick other posted but I like this fingering better.

next change
E|----------------------------------------------------------------------------------
B|----------------------------------------------------------------------------------
G|--8---------------------------------------13----------11----------9---------8-----
D|-----9-----11--9--8--9--8-------------14---14---13----13--11-----11--9-----9--
A|--------9------------------11--9--11----------------------------------------------
E|----------------------------------------------------------------------------------
Sorry bout the formatting, first time with the tab creator. the last bit after 11 9 11 should be played as double stops 3x ea.
and just for fun, same thing an octave up

E|--------------------------------------------------16----------14----------12----------11-----
B|--16------------------------------------------17------17--16------16--14------14--12------12-
G|------16------18--16--15--16--15-------------------------------------------------------------
D|----------16----------------------18--16--18-------------------------------------------------
A|---------------------------------------------------------------------------------------------
E|---------------------------------------------------------------------------------------------

Guess I'll try the forum format option button next time.
 #158307  by Lunchbox16
 Thu Sep 14, 2017 10:50 am
Any guitar and video savvy folks care to do a youtube video lesson on some of these licks?