rukind.com

Grateful Dead Music Forum

A place to talk about the music of the Grateful Dead 

 #7439  by maximinus
 Sat Jul 22, 2006 5:18 pm
Just wonderin' what licks people use for Phil's bass run. If we're jammin away I'll use this:
Code: Select all
G|-----------------------------------------
D|-----------------------------------------
A|-----------------------5-----5--7--7-----
E|--3--5--3--5--7--5--7-----7--------7-----

Or you can use this for a slightly longer version (out of drums/space):
Code: Select all
G|--------------------------------------------------
D|--------------------------------------------------
A|--------------------------------5-----5--7--7-----
E|--0--3--0--3--5--3--5--7--5--7-----7--------7-----
Obviously you have to be pretty fast here

 #7463  by tigerstrat
 Mon Jul 24, 2006 1:20 pm
Here's one... circa 1970 I guess:

G|-----------------------------------------------
D|--------------------0-----------------0--2-----
A|--------------0--2--------------0--2-----------
E|--3--0--2--3-----------0--2--3-----------------