rukind.com

Grateful Dead Music Forum

A place to talk about the music of the Grateful Dead 

 #39677  by Billbbill
 Sun Mar 09, 2008 12:16 am



JG intro

(/) Slide Up (\) Slide Down (h) Hammer On (p) Pull Off (b) Bend (r) Release (v) Vibrato

E|-------------------------------------- 3X
B|--------11----------------------------
G|------------10b12r10--8---------------
D|--8h10-------------------10--------8--
A|-----------------------------8h10-----
E|--------------------------------------

4th time

E|--------------------------------------
B|--------11----------------------------
G|------------10b12r10--8-----10----8--10--10b12r10--8
D|--8h10-------------------10----10---------------------10
A|----------------------------------
E|--------------------------------------

Bob intro

(/) Slide Up (\) Slide Down (h) Hammer On (p) Pull Off (b) Bend (r) Release (v) Vibrato

E|-------8----------------------------- 3X
B|----------10b11r10--8----------------
G|--8h9------------------9------8--10--
D|--------------------------10---------
A|-------------------------------------
E|-------------------------------------

4th time

(/) Slide Up (\) Slide Down (h) Hammer On (p) Pull Off (b) Bend (r) Release (v) Vibrato

E|-------8-------------------------------
B|----------10b11r10--8-----10b11r10-----
G|--8h9------------------9------------9--
D|---------------------------------------
A|---------------------------------------
E|---------------------------------------


The timing on the jg verse vamp is a little funky.


--C
e-----8----11pu12----------------------
b-----8----10pu11----------------------
g-----9----11pu12-----10-8h9--------------
d-----10-----------10-10----10---------
a-----10-------------------------------
E-8-----------------------------------

Then there's this ditty dropping from the C to the F


--C-----------------F
e-------------------------
b----17--15--13--11--10--
g--------------------------
d---17--15--14--12--10------
a---------------------------
E---------------------------

 #39694  by spilly
 Sun Mar 09, 2008 1:11 pm
nice video, perfectly done. I play both intros at the same time, you should try it out, I'll put the fingering in parentisis above the tab

1 is your pointer, 4 is your pinky

___(3)_(1)__(2)_____(1)_(2)_(2)__(1)
___(2)_(4)__(3)_____(1)_(3)_(3)__(1)

E-------8----------------------------
B-------11--10(b11r)-8------------8--
G--7/9------10(b11r)-8---9---7/9--8--
D--8/10------------------10--8/10----
A------------------------------------
e------------------------------------


4th time

___(3)_(1)__(2)_____(1)_(2)_(2)_____(1)______(Barr)
___(2)_(4)__(3)_____(1)_(3)______________(2)_(Barr)

E-------8-------------------------------------7/8--
B-------11--10(b11r)-8------------------------7/8--
G--7/9------10(b11r)-8---9---10(b11r)-8-------8/9--
D--8/10------------------10--------------10---7/8--
A---------------------------------------------9/10-
e---------------------------------------------7/8--


it's a little tougher but it sounds great