rukind.com

Grateful Dead Music Forum

A place to talk about the music of the Grateful Dead 

 #10880  by BlobWeird
 Sun Dec 10, 2006 4:37 pm
This is the solo from Black Peter. It is from 9/21/72 The Spectrum, Philadelphia PA. It can be found on www.nugs.net and DP 36 from what I hear. Now the only thing is. The third bar down is definitely not right. I didnt quite figure it out and didnt wanna sit there all day tryin. So if you have a better ear than me please repost with corrections anyone. That goes for any of it but I think most is fairly accurate. Have fun! Ill post some others tomorrow.



E|--------------------------------------------------
B|----------------17b19r17--------------------------
G|-14-16b17-16b17----------18r16-------14--18r16--14
D|-------------------------------14--16-------------
A|--------------------------------------------------
E|--------------------------------------------------

E|--------------------------------------------------
B|--------------16b18r16b18r16----------------------
G|--14--14--14------------------16b18r16--14b15-----
D|--------------------------------------------------
A|--------------------------------------------------
E|--------------------------------------------------

E|-----------------------17p15-----------------------
B|-------------------15--------17p15------15------15-
G|-----------14--16-------------------17----17p16----
D|-14h16p14------------------------------------------
A|---------------------------------------------------
E|---------------------------------------------------

E|----------|---------------------------------
B|----------|---------------------------------
G|--14--16--|--16--14-------------------------
D|----------|----------17--16b17r16b17r16-----
A|----------|---------------------------------
E|----------|---------------------------------

E|-------------------------------------------------
B|-------------------------------------------------
G|-------------------------------------------------
D|--16--14\12/14b16r14--12--13b14r13--11b12r11-----
A|-------------------------------------------------
E|-------------------------------------------------

E|-----------------------------------------------
B|-----------------------------------------------
G|-----------------------------------------------
D|-----------------------------------------------
A|--14p12---------------------7h8--8p7-----------
E|---------14--15--15h17--17------------8--5-----


There ya go

 #10882  by BlobWeird
 Sun Dec 10, 2006 6:08 pm
Oh i found one of my mistakes...after the first 18r16 you should hit the 14th fret (A) on the G string once. then proceed to the 14 16 on D string. Hah i said G string.