rukind.com

Grateful Dead Music Forum

A place to talk about the music of the Grateful Dead 

 #5245  by b weird
 Mon May 01, 2006 5:27 pm
Since this is also a Traditional song I was wondering if someone could hook me up with these tabs also? P.S. on the webpage the tab says Section One, two, and so one could someone also tell me what that means. Thank And Peace.

 #5247  by jck_strw
 Mon May 01, 2006 6:00 pm
On The Road Again

Reckoning

(Traditional)


General Rules On Chord Charts

Main Riff


Main Riff

(^) Slide Up (\) Slide Down (h) Hammer On (p) Pull Off (b) Bend

MP3 Tab Support Audio (66K)

MIDI Tab Support Audio (ontroad1.mid)

MIDI file Guitars 1 & 2

Guitar 1

C F C SECTION 1
E-----------------------------
B-----------------------------
G---------5----------------5--
D------5-----7--5-------5-----
A-5h7--------------5h7--------
E-----------------------------

C G C SECTION 2
E-----------------------------------
B-----------------------------------
G---------5-------------------------
D------5-----7--5-5--5h7p5----------
A-5h7----------------------7p5--3---
E-----------------------------------

Repeat SECTION 1 AND SECTION 2

F SECTION 3
E------------------------------------------
B------------------------------------------
G---5h7--5-----5h7--5-----5h7--5-----5--7--
D-----------7----------7----------7--------
A------------------------------------------
E------------------------------------------

Repeat SECTION 1
Repeat SECTION 3
Repeat SECTION 1
Repeat SECTION 2


Guitar 2
MP3 Tab Support Audio For Guitar 2(67K)


C F C SECTION 1
E-------8----------------8---
B-----8---10--8-------8------
G-7h9------------7h9---------
D----------------------------
A----------------------------
E----------------------------

C G C SECTION 2
E-------8----------------------------
B-----8---10--8--8-8h10p8------------
G-7h9----------------------7--5------
D--------------------------------10--
A------------------------------------
E------------------------------------

Repeat SECTION 1 And SECTION 2

F SECTION 3
E---8h10--8-----8h10--8-----8h10--8----8--10
B------------10----------10---------10------
G-------------------------------------------
D-------------------------------------------
A-------------------------------------------
E-------------------------------------------

Repeat SECTION 1
Repeat SECTION 3
Repeat SECTION 1
Repeat SECTION 2

Return To Base

This File contains merely an interpretation of the represented musical piece.
It is not intended to replace any commercially available publishing, nor is it
guaranteed to represent an exact transcription of any commercially or otherwise released
piece.

Ed Bick's Tab Archive
Google is your friend.