rukind.com

Grateful Dead Music Forum

A place to talk about the music of the Grateful Dead 

 #70684  by 9 mile skid
 Mon Dec 28, 2009 2:24 pm
Just worked these out listening to Reckoning - needed an open-chord way to play it on acoustic.
Code: Select all
C RIFF
E---------------------------|----------------------------
B-------1----------------1--|-------1--------------------
G-----0----2p0---------0----|-----0----2p0----2p0--------
D-1h2----------2---1h2------|-1h2----------2------1h2----
A---------------------------|-------------------------3--
E---------------------------|----------------------------

F RIFF
E--------------------------------
B-----1h3----1h3----1h3-1---1h3--
G---2------2------2-------2------
D---3------3------3-------3------
A--------------------------------
E--------------------------------
EDIT: fixed silly mistake...