rukind.com

Grateful Dead Music Forum

A place to talk about the music of the Grateful Dead 

 #9845  by strumminsix
 Wed Oct 25, 2006 6:43 am
If we are thinking of the same spot, he arpegiates Gmaj7

 #9854  by Green Rhythm
 Wed Oct 25, 2006 3:50 pm
I meant the part were Jerry plays this riff at the end of the jam.

E-----------------------------------------------------------
B----10^12--10----------------------------------------------
G---------------9^11--9---11--9------11------9--------------
D--------------------------------12------12-----------------
A-----------------------------------------------------------
E-----------------------------------------------------------


Thanks for your help.

 #17057  by strumminsix
 Sun May 27, 2007 5:34 pm
Wow, took me a few attempts but I think this is it...
Code: Select all
E -14---12---10---9---10---9---7---9---5---9---7-------
B -----------------------------------------------------
G -14---12---11---9----9---9---9---9---6---7---7-------
Let me know how this works for y'all please.

(notice some similarities with Black Throated Wind???)

 #17058  by IamDocWatson
 Sun May 27, 2007 5:38 pm
yea...your basic( :lol: )

bob 2 string walk down in E<--BTWind also

 #17066  by deadguise
 Sun May 27, 2007 10:02 pm
74 version is something like this:

I--------------------------------------2--
I----12---10---7---5--7--5--0--3---5---0--
I----11---9----7---6--6--6--0--4---6---0--
I--------------------------------------2--
I--------------------------------------2--
I--------------------------------------0--
 #52350  by jonarobb
 Tue Nov 04, 2008 2:56 pm
This is what Weir does on the walk down ala 74'

E|------------------------------------------3-------
B|-/12--10--7--5--5/7\5--3-3-3/5--3----3----------3-
G|---0---0--0--0--0-0-0--0-0-0/0--0-------0---------
D|-/12--11--9--7--7/9\7--5-5-5/7--5--5---------5----
A|--------------------------------------------------
E|-------------------------------------------------- X3

E|--------------------------------3--------7--------
B|-/12--10--7--5--5/7\5--3-3-3/7--3--------7--------
G|---0---0--0--0--0-0-0--0-0-0/0--5--------9--------
D|-/12--11--9--7--7/9\7--5-5-5/9--5--------9--------
A|-----------------------------------------7--------
E|--------------------------------------------------
 #52370  by jonarobb
 Wed Nov 05, 2008 5:10 am
Here's Jerry's single note counter line to Weir taken from DP 31:

E|---------------------------------------
B|---------------------------------------
G|--11--9--------------------------------
D|---------12--11--12--11--9--11------9--
A|--------------------------------12-----
E|--------------------------------------- x3


E|--------------------------------------------------
B|--------------------------------------------------
G|--11--9-------------------------------------------
D|---------12--11--12--11--9--11----9-11--9---------
A|--------------------------------12----12----------
E|--------------------------------------------------

E|-----------------12--------------12--------------12--
B|-----------------------------------------------------
G|---------12--------------12--------------12----------
D|-----14------14------14------14------14------14------
A|-----------------------------------------------------
E|--0--------------------------------------------------
 #55451  by Dozin
 Sat Jan 24, 2009 5:44 am
jonarobb wrote:This is what Weir does on the walk down ala 74'

E|------------------------------------------3-------
B|-/12--10--7--5--5/7\5--3-3-3/5--3----3----------3-
G|---0---0--0--0--0-0-0--0-0-0/0--0-------0---------
D|-/12--11--9--7--7/9\7--5-5-5/7--5--5---------5----
A|--------------------------------------------------
E|-------------------------------------------------- X3

E|--------------------------------3--------7--------
B|-/12--10--7--5--5/7\5--3-3-3/7--3--------7--------
G|---0---0--0--0--0-0-0--0-0-0/0--5--------9--------
D|-/12--11--9--7--7/9\7--5-5-5/9--5--------9--------
A|-----------------------------------------7--------
E|--------------------------------------------------

This is how I play it too.