rukind.com

Grateful Dead Music Forum

A place to talk about the music of the Grateful Dead 

 #1836  by settledowneasy91
 Mon Jul 25, 2005 2:09 pm
hi everybody
on the pizza tapes album, jerry throws in some lick between each intro chord here they are:

E--------3----------------2----------------0--0--------------
B--------3----------------3---------------1--1---------------
G--------0------------2--2---------------2--2---------------
D--------0---------0------0-----------2--2--2---------------
A-----2--2---0--2------------3--2---0------0--0--------------
E--3-----3---------------------------------------------------

Sorry about the sloppiness folks (i dont think you can do open notes on the tab creator) the zero right in front of the d is supposed to be part of the d and that goes also with the two (two not three, the first zero befor the a minors is by itself followed by the second fret on the d string, like how you play the first two notes before the g) Im really sorry about my crappy explanation-if i ever figure out how to do open notes on the tab creator, ill repost this, or maybe if i ever get bored ill repost it with some of the notes as fifths on other strings
sorry!
 #1837  by settledowneasy91
 Mon Jul 25, 2005 2:19 pm
sorry, that was jsut really bothering me:

E--------3--------------2------------------------------------
B--------3--------------3--------------1--1------------------
G--------------------2--2--------------2--2------------------
D-----------------------------------2--2--2------------------
A-----2--2-----2--5--------3--2------------------------------
E--3-----3--5--------------------5---------------------------

this looks and feel kind of akward when you play it, but just replace all the fifth frets for an open note on the next string. I'm not sure if jerry plays the riff before the d but i thnk it sounds good, so what the hell? Repeat the a minor as many times as needed and try to variate from just these riffs
Hope this makes more sense!
 #1853  by settledowneasy91
 Wed Jul 27, 2005 3:24 pm
hi again, i figured out the remaining lick just before the first intro g from the pizza tapes

E------------------------------------------------------------
B------------------------------------------------------------
G------------------------------------------------------------
D-----------2--5---------------------------------------------
A--5--2--5---------------------------------------------------
E------------------------------------------------------------

Initially i thought the riff was somewhere nearer to the positivley 4th street lick, but this is it
P.s does anyone know if jerry used these riffs at dead shows?
thanks