That Would Be Something

(McCartney)

 Last Updated 01/31/97

General Rules On Chord Charts

Thanks to David McKenney for providing the source.

The Riff
E That would be something E Really would be something A E Meet ya in the pouring rain A E Meet ya in the pouring rain, mama A E Meet ya in the pouring rain

Riffs

(^) Slide Up  (\) Slide Down  (h) Hammer On  (p) Pull Off  (b) Bend

MIDI Tab Support Audio (twbs.mid)

       E
E----------------------------|------------------------------
B----------------------------|------------------------------
G----------------------------|------------------------------
D----7^9---7--6--7--6--------|--7^9--9--7--6--7--6----------
A----------------------7-----|-----------------------7------
E--------------------------7-|------------------------------

    A                E
E-----------------------------------------------------------
B-----------------------------------------------------------  3X
G-----------------------------------------------------------
D-----------2--2--4--2--------2-----------------------------
A------3h4--------------------------------------------------
E---5--------------------3h4--------------------------------

Return To Base

This File contains merely an interpretation of the represented musical piece.
It is not intended to replace any commercially available publishing, nor is it
guaranteed to represent an exact transcription of any commercially or otherwise released
piece.

Ed Bick's Tab Archive, 1997