Tore Up Over You

Reflections

(Ballard)

 Last Updated 09/26/96

General Rules On Chord Charts

Intro
G F C C Ever since you've been gone, I just cry the whole night long F Since the day you said good-bye C You hurt me so, no lie, no lie G F C I'm tore up over you and I just can't find my way C Tore up, yeah, yeah, yeah, tore up F Whoooooo, Tore up, C Yeah, yeah, yeah, tore up G F C I'm tore up over you and I just can't find my way You didn't love me like you told me so, If you did, how could you go? It was you, not me that left And went away with someone else I'm tore up over you and I just can't find my way Tell me what did I do To make you go away Tell me what can I do To make you come back to stay I'm tore up over you and I just can't find my way

Intro

(^) Slide Up  (\) Slide Down  (h) Hammer On  (p) Pull Off  (b) Bend

MP3 Tab Support Audio (30K)

MIDI Tab Support Audio (toreup.mid)

    G
E---------------10--12--13--10--12--10----------------------
B-------11--12----------------------------------------------
G-----------------------------------------------------------
D-----------------------------------------------------------
A-----------------------------------------------------------
E-----------------------------------------------------------
    F
E----------------8--10--11--8---10--8-----------------------
B--------9--10----------------------------------------------
G-----------------------------------------------------------
D-----------------------------------------------------------
A-----------------------------------------------------------
E-----------------------------------------------------------
    C
E----------8------------------------------------------------
B--------8----11--10--8-------------------------------------
G----6^9-----------------9--10------------------------------
D-------------------------------10--------------------------
A-----------------------------------------------------------
E-----------------------------------------------------------

Return To Base

This File contains merely an interpretation of the represented musical piece.
It is not intended to replace any commercially available publishing, nor is it
guaranteed to represent an exact transcription of any commercially or otherwise released
piece.

Ed Bick's Tab Archive, 1997