Stella Blue

Stella Blue

Wake Of The Flood

(Garcia/Hunter)

 Last Updated 03/31/96

General Rules On Chord Charts

Intro
E Emaj7 All the years combine, Asus4 A They melt into a dream, Em C7 B7 A broken angel sings from a guitar. B7
In the end there's just a song Comes cryin' up the night Thru all the broken dreams and vanished years. E A E Stella Blue. Stella Blue. Verse Ending
When all the cards are down, There's nothing left to see, There's just the pavement left and broken dreams. In the end there's still that song Comes cryin' like the wind. Down every lonely street that's ever been Stella Blue. Stella Blue. B E A I've stayed in every blue-light cheap hotel, E B Can't win for trying. B E A E A Dust off those rusty strings just one more time, E B Gonna make them shine, shine Bridge

MP3 Tab Support Audio (37K)
Tab Support Audio (stella5.mid)

E  Emaj7  Asus4  A  Em  C7  B7

It all rolls into one
And nothing comes for free,
There's nothing you can hold, for very long.

And when you hear that song
Come crying like the wind,
It seems like all this life was just a dream.

Stella Blue.          Stella Blue.

Intro

(^) Slide Up  (\) Slide Down  (h) Hammer On  (p) Pull Off  (b) Bend

MP3 Tab Support Audio (37K)

MIDI Tab Support Audio (stella.mid)

E-------------------0---0-----0-0-------------0-----------0-
B-------------------0---0-----0-0-------------0-----------0-
G--7----------------1---1-----1-1-------------1-----------1-
D------11---8---7---2---2-----2-2-------------2--------1--2-
A-------------------2---2-----2-2--2p1-0------2--2--4-----2-
E--7---9----6---5---0---0-----0-0---------4---0-----------0-

Return To Base

B7

(^) Slide Up  (\) Slide Down  (h) Hammer On  (p) Pull Off  (b) Bend

MP3 Tab Support Audio (19K)

MIDI Tab Support Audio (stella2.mid)

E-----------------------------------------------------------
B-----------------------------------------------------------
G-----------------------------------------------------------
D------9------4--4^6\4---2----------------------------------
A---9-------------------------------------------------------
E-----------------------------------------------------------

Return To Base

Verse Ending

(^) Slide Up  (\) Slide Down  (h) Hammer On  (p) Pull Off  (b) Bend

MP3 Tab Support Audio (24K)

MIDI Tab Support Audio (stella3.mid)

                         E
E------------------------0-----------0--2--0-----0----------
B------------------------0-----------0--------4--0----------
G------------------------1-----------1-----------1----------
D---------------------1--2-----------2-----------2----------
A--2h4p2-----0--2--4-----2-----------2-----------2----------
E---------4--------------0-----------0-----------0----------

Return To Base

Bridge

(^) Slide Up  (\) Slide Down  (h) Hammer On  (p) Pull Off  (b) Bend

MP3 Tab Support Audio (34K)

MIDI Tab Support Audio (stella4.mid)

E-----------------------------------------------------------
B-----------------------------------------------------------
G-----------------------------------------------------------
D--------------1---1h2--1--2---4----------------------------
A---2h4--2--4-----------------------------------------------
E-----------------------------------------------------------

Return To Base

This File contains merely an interpretation of the represented musical piece.
It is not intended to replace any commercially available publishing, nor is it
guaranteed to represent an exact transcription of any commercially or otherwise released
piece.

Ed Bick's Tab Archive, 1997