Spanish Jam


 Last Updated 09/13/96

General Rules On Chord Charts

Type 1
Type 2
Type 3

Type 1

(^) Slide Up  (\) Slide Down  (h) Hammer On  (p) Pull Off  (b) Bend

MIDI Tab Support Audio (spanish.mid)

MIDI file plays all 3 types

E-----------------------------------------------------------
B---0--1--3--------0--1--3--1--0--1-------------------------
G---1--2--4--------1--2--4--2--1--2-------------------------
D-----------------------------------------------------------
A-----------------------------------------------------------
E-----------------------------------------------------------

E-----------------------------------------------------------
B---1--0-----------0--1--3--1--0--1-------------------------
G---2--1-----------1--2--4--2--1--2-------------------------
D-----------------------------------------------------------
A-----------------------------------------------------------
E-----------------------------------------------------------

Return To Base

Type 2

(^) Slide Up  (\) Slide Down  (h) Hammer On  (p) Pull Off  (b) Bend

MIDI Tab Support Audio (spanish.mid)

MIDI plays all 3 parts

                                   The MIDI for this part did not
                                   translate very well, but if you
                                   these chords and use the MIDI
                                   for the rythym, it'll sound right.

E----0---0---0--------0--0--0------0--0--0--0--0--0---------
B----0---0---0--------0--1--3------0--1--3--1--0--1---------
G----1---2---1--------1--2--4------1--2--4--2--1--2---------
D----2---3---2--------2--3--5------2--3--5--3--2--3---------
A----2---3---2--------2--3--5------2--3--5--3--2--3---------
E----0---0---0--------0--0--0------0--0--0--0--0--0---------

Return To Base

Type 3

(^) Slide Up  (\) Slide Down  (h) Hammer On  (p) Pull Off  (b) Bend

MIDI Tab Support Audio (spanish.mid)

MIDI plays all 3 parts

E-----------------------------------------------------------
B-----------------------------------------------------------
G-----------------------------------------------------------
D--------------------------------2---------2----------------
A----------2---------2-----0--3------0--3-------------------
E----0--4------0--4-----------------------------------------

Return To Base

This File contains merely an interpretation of the represented musical piece.
It is not intended to replace any commercially available publishing, nor is it
guaranteed to represent an exact transcription of any commercially or otherwise released
piece.

Ed Bick's Tab Archive, 1997