Looks Like Rain

Ace

(Weir/Barlow)

 Last Updated 01/11/97

General Rules On Chord Charts

E      (SN)   Ab  AbhA B

E             A     C#7                   F#m
I woke today,       felt your side of the bed;
E               B                           C#m      F#m   E
The covers were still warm where you’d been layin'.
         C#m      Bm      A    C#7                   F#m
You were gone, oh gone,     my heart was filled with dread;
E                B              C#m    F#m  E
You might not be sleeping here again.
Asus4      A             Asus4    A
But it's alright cause I love you,
F#m                     D           A      E
And that's not going to change.
F#m                       B               E       G#sus4   G#
Run me around and make me hurt again and again.
C#m                     A
But I'll still sing you love songs,
E       C#m    B          G#   C#m     F#m
Written in the letters of your name.
E   Asus4              A
And brave the storm to come,
       F#m               E          Asus4          A        F#m     E
For it surely looks like rain

Did you ever waken to the sound of street cats making love?
And guess from the cries you were listening to a fight.
Well you know, oh-oh , hate’s just the last thing they're thinking of.
They're only tryin' to make it through the night.

I only want to hold you, I don't want to tie you down
Or fence you in the lines I might've drawn.
It's just that I, oh I, have gotten used to havin' you around.
The landscape would be empty, if you were gone;
But it's alright cause I love you,
And that's not going to change.
Run me around and make me hurt again and again.
But I'll still sing you love songs,
Written in the letter of your name.
And brave the storm to come,
For it surely looks like rain.

Improv Riff

(^) Slide Up  (\) Slide Down  (h) Hammer On  (p) Pull Off  (b) Bend

MP3 Tab Support Audio (30K)

MIDI Tab Support Audio (llrain.mid)

E----------|------------------|--------------------|--------------
B----------|------------------|--------------------|--------------
G-----1--1-|--1--2--4p2--1----|--1-----------1-----|--1-----------
D----------|----------------4-|-----4--2--4-----4--|-----4--2-----
A--2-------|------------------|--------------------|-----------4--
E----------|------------------|--------------------|--------------

Return To Base

Rain Effect

(^) Slide Up  (\) Slide Down  (h) Hammer On  (p) Pull Off  (b) Bend

MIDI Tab Support Audio (llrain2.mid)

E----19--19--19p17p16---------------------------------------
B----------------------17-----------------------------------
G-----------------------------------------------------------
D-----------------------------------------------------------
A-----------------------------------------------------------
E-----------------------------------------------------------

Return To Base

This File contains merely an interpretation of the represented musical piece.
It is not intended to replace any commercially available publishing, nor is it
guaranteed to represent an exact transcription of any commercially or otherwise released
piece.

Ed Bick's Tab Archive, 1997