Playin' In The Band

Playing In the Band

Ace

(Weir/Hart/Hunter)

 Last Updated 07/20/96

General Rules On Chord Charts

Bob Intro
Jerry Intro
D D A D Some folks trust to reason others trust to might, 3 Common Jerry Verse Riffs
D D A D I don't trust to nothin', but I know it comes out right. D D A D Say it once again now, Whoa, I hope you'll understand D D A D When it's done and over, look, a man is just a man. D D A D Playin', playin' in the band. D D A D Daybreak, daybreak on the land. Main Theme
Some folks look for answers others look for fights, Some folks up in treetops just a looking for their kites. Whoa, I can tell your future just look what's in your hand, But I can't stop for nothin' I'm just playing in the band. Playin', playin' in the band. Daybreak, daybreak on the land.

MP3 Tab Support Audio (61K)
Tab Support Audio - Bridge(playin4.mid)

A            E  A
E   A
A            E  A
G  D  A
A            E  A
E   A
A            E  A
G  D  A

Bm    G
D     Gm


Standin' on a tower world at my command
You just keep a turnin' while I'm playing in the band.
And if a man among you got no sin upon his hand
Let him cast a stone at me for playing in the band.

Playin', playin' in the band.
Daybreak, daybreak on the land.
Playin', like a wave upon the sand
Daybreak, while I'm playin' in the band

Space Intro

Bob Intro

(^) Slide Up  (\) Slide Down  (h) Hammer On  (p) Pull Off  (b) Bend

MP3 Tab Support Audio (18K)

MIDI Tab Support Audio (playin1.mid)

MIDI file B&J Parts

E-----------------------------------------------------------
B--------3--------3--------3----3--3--3---------------------
G-----2--------2--------2-----------------------------------
D--0--------0--------0---------------------------0* (repeat)
A-------------------------------3--3--2--0h2p0--------------
E-----------------------------------------------------------

Return To Base

Jerry Intro

(^) Slide Up  (\) Slide Down  (h) Hammer On  (p) Pull Off  (b) Bend

MP3 Tab Support Audio (6K)

MIDI Tab Support Audio (playin1.mid)

MIDI file B&J parts

E-------------------------------5--5--3--2h3p2--------------
B----------------------------------------------5-3----------
G-----------------------------------------------------------
D-----------------------------------------------------------
A-----------------------------------------------------------
E-----------------------------------------------------------

Return To Base

3 Jerry Verse Riffs

(^) Slide Up  (\) Slide Down  (h) Hammer On  (p) Pull Off  (b) Bend

MP3 Tab Support Audio (5K)

MIDI Tab Support Audio (playin2.mid)

E---12^14--12--10-------------------------------------------
B---10^12--10--7--------------------------------------------
G-----------------------------------------------------------
D-----------------------------------------------------------
A-----------------------------------------------------------
E-----------------------------------------------------------

MP3 Tab Support Audio (5K)

E--------5--------------------------------------------------
B---5^7------7p5--------------------------------------------
G-----------------7--7--------------------------------------
D-----------------------------------------------------------
A-----------------------------------------------------------
E-----------------------------------------------------------

MP3 Tab Support Audio (4K)

E-----------------------------------------------------------
B-----------------------------------------------------------
G-----------------------------------------------------------
D--------0---4p2--0-----0-----------------------------------
A---0h2--------------2--------------------------------------
E-----------------------------------------------------------

Return To Base

Riff 2

(^) Slide Up  (\) Slide Down  (h) Hammer On  (p) Pull Off  (b) Bend

MP3 Tab Support Audio (22K)

MIDI Tab Support Audio (playin3.mid)

E---0h2--2--3----0h2--2--0----0h2--2--0--2------------------
B---3----3--3----3----3--3----3----3--3--3--3---------------
G---2----2--2----2----2--2----2----2--------2---------------
D---0----0--0----0----0--0----0----0--------0---------------
A-----------------------------------------------------------
E-----------------------------------------------------------

Return To Base

Space Intro

(^) Slide Up  (\) Slide Down  (h) Hammer On  (p) Pull Off  (b) Bend

MP3 Tab Support Audio (37K)

MIDI Tab Support Audio (playin5.mid)

E-----------------------------------------------------------
B----------1------------------------------------------------
G--0h2--2------0h2--2--0----0h2--2--0--2--------------------
D-----------------------------------------0-----------------
A-----------------------------------------------------------
E-----------------------------------------------------------

E--------------------------0--------------------------------
B----------1-----------3------3--1--3--3--------------------
G--0h2--2------0h2--2---------------------------------------
D-----------------------------------------------------------
A-----------------------------------------------------------
E-----------------------------------------------------------

Return To Base

This File contains merely an interpretation of the represented musical piece.
It is not intended to replace any commercially available publishing, nor is it
guaranteed to represent an exact transcription of any commercially or otherwise released
piece.

Ed Bick's Tab Archive, 1997