I'll Take A Melody

Reflections


(Toussaint)



 Last Updated 07/12/96



General Rules On Chord Charts



Intro
A Bm/A I've seen the rain pouring down E A The sky was grey with a speck of blue A Bm/A Peek through a hole in the clouds E The sun was screaming, "Hey You!". As you ramble through your sorrow Seems like everything come out wrong I'm living in yesterday's tomorrows I know something's helping me along Chorus Riff
A D E I'll take a melody and see what I can do about it. A D E I'll take a simple C and G and feel brand new about it. F#m C#m F#m C#m I understand why the old fisherman D C#m F#m C#m Sail alone, sail alone, sail alone. F#m Sail alone D E Someday he'll be gone I hear you talking about your troubles Everybody's got their troubles too You can make them burst like bubbles If you know just what to do You know I've been called a dreamer Dreams that never come true But I've been called so many things before Tell you what I'm gonna do I'll take a melody and see what I can do about it. I'll take a simple C and G and feel brand now about it. I understand why the old fisherman Sail alone, sail alone, sail alone. Sail alone Someday he'll be gone I'll take a melody and see what I can do about it. I'll take a simple C and G and feel brand now about it. Bridge Jam
Shine on, keep on shining, shine on, Keep on shining, shine on, keep on shining.

Intro


(^) Slide Up  (\) Slide Down  (h) Hammer On  (p) Pull Off  (b) Bend



RA Tab Support Audio (42K)
MIDI Tab Support Audio (melody1.mid)



E-----------------------------------------------------------
B--5^7--5-----7--5------------------------------------------
G----------6--------6\4--------4--6-------------------------
D------------------------7--4--------7-----------4--7--4----
A------------------------------------------7--7-------------
E-----------------------------------------------------------

Return To Base
Instructional Video Stream

Chorus Riff


(^) Slide Up  (\) Slide Down  (h) Hammer On  (p) Pull Off  (b) Bend



RA Tab Support Audio (11K)
MIDI Tab Support Audio (melody2.mid)



E--0------------------------------0-------------------------
B----3--0-------------------------2-------------------------
G-------------0h1-----------------2-------------------------
D----------2-------2--------0--1--2-------------------------
A------------------------4--------0-------------------------
E-----------------------------------------------------------

Return To Base
Instructional Video Stream

Bridge Jam


(^) Slide Up  (\) Slide Down  (h) Hammer On  (p) Pull Off  (b) Bend

RA Tab Support Audio (50K)
MIDI Tab Support Audio (melody3.mid)

E------8-------8-----------------10---------10--------------
B----------------10p8--------------------------12p10--------
G--2^9-----2^9--------9----4^11------4^11------------11-----
D-----------------------------------------------------------
A-----------------------------------------------------------
E-----------------------------------------------------------

    C    A    C  B  A#  A
E---8----5----8--7--6---5-----------------------------------
B---8----5----8--7--6---5-----------------------------------
G---9----6----9--8--7---6-----------------------------------
D---10---7----10-9--8---7-----------------------------------
A---10---7----10-9--8---7-----------------------------------
E---8----5----8--7--6---5-----------------------------------

E------8-------8-----------------10---------10--------------
B----------------10p8--------------------------12p10--------
G--2^9-----2^9--------9----4^11------4^11------------11-----
D-----------------------------------------------------------
A-----------------------------------------------------------
E-----------------------------------------------------------

E-------12---------16--16--16--16---------------------------
B------------------17--17--17--17---------------------------
G--6^13-----6^13--------------------------------------------
D-----------------------------------------------------------
A-----------------------------------------------------------
E-----------------------------------------------------------

Return To Base
Instructional Video Stream

This File contains merely an interpretation of the represented musical piece.
It is not intended to replace any commercially available publishing, nor is it
guaranteed to represent an exact transcription of any commercially or otherwise released
piece.

Ed Bick's Tab Archive, 1997