Turn On Your Love Light

Live Dead

(Scott/Malone)


General Rules On Chord Charts

Intro
E7 A7

Intro

(^) Slide Up  (\) Slide Down  (h) Hammer On  (p) Pull Off  (b) Bend

MP3 Tab Support Audio (16K)

MIDI Tab Support Audio (luvlite1.mid)

    E7            A7
E-----------------------------------------------------------
B-----------------------------------------------------------
G-----------------------------------------------------------
D-------------------------2---------------------------------
A-----------2-----0---4-------------------------------------
E---0---4---------------------------------------------------

Return To Base

Riff

(^) Slide Up  (\) Slide Down  (h) Hammer On  (p) Pull Off  (b) Bend

MP3 Tab Support Audio (22K)

MIDI Tab Support Audio (luvlite2.mid)

    E7     A7                E7    A7
E-----------------------------------------------------------
B----------------------------------2-----2--5---------------
G---1------------------------1--4-----4---------------------
D------4---2---------2--------------------------------------
A--------------2h4------------------------------------------
E-----------------------------------------------------------

Return To Base

This File contains merely an interpretation of the represented musical piece.
It is not intended to replace any commercially available publishing, nor is it
guaranteed to represent an exact transcription of any commercially or otherwise released
piece.
Ed Bick's Tab Archive