Lazy Lightning

Kingfish

(Weir/Barlow)

 Last Updated 02/16/97

General Rules On Chord Charts

Intro
C Em Fmaj-C-Am Lazy lightnin', sleepy fire in your eyes, Fmaj7 C Is that desire in disguise? Em* I keep on tryin’ but I, I can’t get through Em*
Lazy lightnin', I’d like to find the proper potion To kinda capture your emotion You’re right beside me but I, I can’t get through Am You’re a loop of Lazy lightnin', Just a loop of Lazy lightnin', Must admit you’re kinda frightening, But you really get me high. Phil
Frozen lightnin', when I hear your velvet thunder You seem so near I start to wonder Would you come closer if I, if I asked you to? So inviting, well, you’re messin’ with my reason It’s an obsession but it’s pleasin’ Tell me your lie and I will swear, I’ll swear it’s true You’re a loop of Lazy lightnin', Just a loop of Lazy lightnin', Must admit you’re kinda frightening, G Loop a loop of Lazy lightnin', D Rope of fire ‘round my heart (lightnin') G Rope of fire ever (tightening) D Rope of fire ‘round my heart Em C G F C Am Come on, come on, lazy lightnin' Tab Support Audio (lazylit4.mid) Am You’re a loop of Lazy lightnin', Whooo Lazy lightnin', they say you’ll never strike the same place I want a double dose in my case I’d fly a kite if I thought, thought that would do Misty lightnin', you always ‘lectrified me, Someday I know you’ll satisfy me And all that lightnin' will be my lightnin', too Am My lightnin' too
Supplication

Intro

(^) Slide Up  (\) Slide Down  (h) Hammer On  (p) Pull Off  (b) Bend

MP3 Tab Support Audio (12K)

MIDI Tab Support Audio (lazylit1.mid)

E--7-----7--7------------10---12--12------------------------
B------8------8-------8-------------------------------------
G----9--------------9---------------------------------------
D-----------------------------------------------------------
A-----------------------------------------------------------
E-----------------------------------------------------------

Return To Base

Em

(^) Slide Up  (\) Slide Down  (h) Hammer On  (p) Pull Off  (b) Bend

MP3 Tab Support Audio (12K)

MIDI Tab Support Audio (lazylit2.mid)

E---0-------------------------------------------------------
B---0-----------------1-------------------------------------
G---0----------0--0-2---------------------------------------
D---2--2-3---3----------------------------------------------
A---2-------------------------------------------------------
E---0-------------------------------------------------------

Return To Base

Phil

(^) Slide Up  (\) Slide Down  (h) Hammer On  (p) Pull Off  (b) Bend

MP3 Tab Support Audio (28K)

MIDI Tab Support Audio (lazylit3.mid)

E-----------------------------------------------------------
B--------------------------------------------------5--------
G-----------2-------2--5-----------------2------2-----------
D-------3--------5-----------------3----------5-------------
A--3^5----5-------------------3^5-----5---------------------
E-----------------------------------------------------------

Return To Base

This File contains merely an interpretation of the represented musical piece.
It is not intended to replace any commercially available publishing, nor is it
guaranteed to represent an exact transcription of any commercially or otherwise released
piece.

Ed Bick's Tab Archive, 1997