It Must've Been The Roses

Reckoning

(Hunter)

 Last Updated 10/18/96

General Rules On Chord Charts

Intro
A Annie laid her head down in the roses. D She had ribbons, ribbons, ribbons, in her long brown hair. E A F#m I don't know, maybe it was the roses, A E A All I know I could not leave her there. D E A I don't know, it must have been the roses, D E A G D The roses or the ribbons in her long brown hair. E A F#m I don't know, maybe it was the roses, A E A All I know I could not leave her there. A D A Ten years the waves roll the ships home from the sea, D Thinkin' well how it may blow in all good company, A E D If I tell another what your own lips told to me, A E D Let me lay 'neath the roses, till my eyes no longer see. I don't know, it must have been the roses, The roses or the ribbons in her long brown hair. I don't know, maybe it was the roses, All I know I could not leave her there. One pane of glass in the window, No one is complaining, no, come in and shut the door, Faded is the crimson from the ribbons that she wore, And it's strange how no one comes round any more. I don't know, it must have been the roses, The roses or the ribbons in her long brown hair. I don't know, maybe it was the roses, All I know I could not leave her there. Annie laid her head down in the roses. She had ribbons, ribbons, ribbons, in her long brown hair. I don't know, maybe it was the roses, All I know I could not leave her there.

Intro

(^) Slide Up  (\) Slide Down  (h) Hammer On  (p) Pull Off  (b) Bend

MP3 Tab Support Audio (34K)

MIDI Tab Support Audio (itmustve.mid)

E-----------------------------------------------------------
B-----------------------------------------------------------
G--------2-----4--4^6--6--4--6--6^7--6--4h6p4--1-----2------
D--2--2-----2-------------------------------------2---------
A-----------------------------------------------------------
E-----------------------------------------------------------

E-------------------------------------0---------------------
B-------------------------------------2---------------------
G-------------------------------------2---------------------
D--2^4--2-----------------------------2---------------------
A----------4--2--0--------------------0---------------------
E-------------------------0--0--2--4------------------------

Return To Base

This File contains merely an interpretation of the represented musical piece.
It is not intended to replace any commercially available publishing, nor is it
guaranteed to represent an exact transcription of any commercially or otherwise released
piece.

Ed Bick's Tab Archive, 1997