Goin' Down The Road Feelin' Bad/And We Bid You Goodnight

Skull & Roses

(Traditional)

 Last Updated 06/21/96

General Rules On Chord Charts

Intro
E Goin' down the road feelin' bad. Riff
A E Goin' down the road feelin' bad. A E C#m Goin' down the road feelin' bad. E B E I don't want to be treated this a-way. Goin' where the climate suits my clothes. Goin' where the climate suits my clothes. Goin' where the climate suits my clothes. I don't want to be treated this a-way. Goin' down the road feelin' bad. Goin' down the road feelin' bad. Goin' down the road feelin' bad. I don't want to be treated this a-way. Goin' where the water tastes like wine. Goin' where the water tastes like wine. Goin' where the water tastes like wine. I don't want to be treated this a-way. Goin' down the road feelin' bad. Goin' down the road feelin' bad. Goin' down the road feelin' bad. I don't want to be treated this a-way. Goin' where the chilly winds don't blow. Goin' where the chilly winds don't blow. Goin' where those chilly winds don't blow. I don't want to be treated this a-way. And We Bid You Goodnight Instrumental Ending

Intro

(^) Slide Up  (\) Slide Down  (h) Hammer On  (p) Pull Off  (b) Bend

MP3 Tab Support Audio (9K)

MIDI Tab Support Audio (gdtrfb1.mid)

E-----------------------------------------------------------
B-----------------------------------------------------------
G-----------------------------------------------------------
D-----------------2-----------------------------------------
A-----------2--4-----4--2-----------------------------------
E--0---2h4-----------------4p2--0---------------------------

Return To Base

Riff

(^) Slide Up  (\) Slide Down  (h) Hammer On  (p) Pull Off  (b) Bend

MP3 Tab Support Audio (8K)

MIDI Tab Support Audio (gdtrfb2.mid)

E-----------------------------------------------------------
B-----------------------------------------------------------
G-----------------------------------------------------------
D-----------------2-----------------------------------------
A-----------2--4-----4--2-----0-----------------------------
E--0---2h4-----------------4--------------------------------

Return To Base

And We Bid You End

(^) Slide Up  (\) Slide Down  (h) Hammer On  (p) Pull Off  (b) Bend

MP3 Tab Support Audio (51K)

MIDI Tab Support Audio (andwebid.mid)

         E
E-----------------------------------------------------------
B---7^9--7-----9--7-----9-------7--9-9-9-7------------------
G-----------9--------9------9-9------------9----------------
D-----------------------------------------------------------
A-----------------------------------------------------------
E-----------------------------------------------------------
        E                            B
E-----------------------------------------------------------
B-------7--9--9--9--7-----9--9p7-----7----------------------
G---9-9----------------9----------9-------------------------
D-----------------------------------------------------------
A-----------------------------------------------------------
E-----------------------------------------------------------

   E    A                    E                A     B     E
E-------7---------------------------------------------------
B--7^9-----10----10-9--7------------7--9--7-----------7-----
G-------------------------9--9----9---------9-9---9-8---8-9-
D-----------------------------------------------------------
A-----------------------------------------------------------
E-----------------------------------------------------------

Return To Base

This File contains merely an interpretation of the represented musical piece.
It is not intended to replace any commercially available publishing, nor is it
guaranteed to represent an exact transcription of any commercially or otherwise released
piece.

Ed Bick's Tab Archive, 1997