Fire On The Mountain

Fire on the Mountain

Shakedown Street

(Hart/Hunter)

 Last Updated 03/16/96

General Rules On Chord Charts

MIDI file
download
Phil Intro
Jerry Intro
B A Long distance runner, what you standin' there for? B A Get up, get up, get out of the door B A Your playin' cold music on the barroom floor B A Drowned in your laughter and dead to the core. B A There's a dragon with matches that's loose on the town B A Take a whole pail of water just to cool him down. B A Fire! Fire on the mountain! Almost ablaze still you don't feel the heat It takes all you got just to stay on the beat. You say it's a livin', we all gotta eat But you're here alone, there's no one to compete. If mercy's in bus’ness, I wish it for you More than just ashes when your dreams come true. Fire! Fire on the mountain! Long distance runner, what you holdin' out for? Caught in slow motion in a dash for the door. The flame from your stage has now spread to the floor You gave all you had, Why you wanna give more? The more that you give, the more it will take Till the thin line beyond which you really can't fake. Fire! Fire on the mountain! Outro

Phil Intro

(^) Slide Up  (\) Slide Down  (h) Hammer On  (p) Pull Off  (b) Bend

MP3 Tab Support Audio (30K)

MIDI Tab Support Audio (fire1.mid)

MIDI file both Phil & Jerry Parts

E-----------------------------------------------------------
B-----------------------------------------------------------
G-----------------------------------------------------------
D-------9-9--9---9---9---------7-7--------------------------
A-----9------------9---------7------------------------------
E---7----------7-----------5----------5--0--5--7p5--0-------

Return To Base

Jerry Intro

(^) Slide Up  (\) Slide Down  (h) Hammer On  (p) Pull Off  (b) Bend

MP3 Tab Support Audio (27K)

MIDI Tab Support Audio (fire1.mid)

MIDI file both Phil & Jerry Parts

E----------------------7--6---------------------------------
B---7---7\6--7---9--7--------10--9--10----------------------
G-----------------------------------------------------------
D-----------------------------------------------------------
A-----------------------------------------------------------
E-----------------------------------------------------------

Return To Base

Outro

(^) Slide Up  (\) Slide Down  (h) Hammer On  (p) Pull Off  (b) Bend

MP3 Tab Support Audio (30K)

MIDI Tab Support Audio (fire2.mid)

E---19----18--16--14--11--------------17--16---14----14--16-
B-------------------------14--12--14--------------17--------
G-----------------------------------------------------------
D-----------------------------------------------------------
A-----------------------------------------------------------
E-----------------------------------------------------------


Return To Base

This File contains merely an interpretation of the represented musical piece.
It is not intended to replace any commercially available publishing, nor is it
guaranteed to represent an exact transcription of any commercially or otherwise released
piece.

Ed Bick's Tab Archive, 1997