Finders Keepers, Losers Weepers

Keepers (Live)

Live At Keystone

(Johnson/Bowen)

 Last Updated 07/27/96

General Rules On Chord Charts

The main vamp of this song occurs on a G chord.

Then, there's This Riff

Then, the vamp goes:

G
Bb
C

Then finally, this main riff


1st Riff

(^) Slide Up  (\) Slide Down  (h) Hammer On  (p) Pull Off  (b) Bend

MP3 Tab Support Audio (5K)

MIDI Tab Support Audio (finders1.mid)

E------------------------------------3-----------------------
B------------------------------------3-----------------------
G---------4--------------------------4-----------------------
D---5--7---------7--5----------------5-----------------------
A----------------------8-------5-----5-----------------------
E------------------------------------3-----------------------

Return To Base

Main Riff

(^) Slide Up  (\) Slide Down  (h) Hammer On  (p) Pull Off  (b) Bend

MP3 Tab Support Audio (8K)

MIDI Tab Support Audio (finders2.mid)

E-----------------------------------------------------------
B-----------------------------------------------------------
G---------4-------------------------------------------------
D---5--7---------7--5---------------------------------------
A----------------------8-------5--------5-------------------
E---------------------------------6--8-----6--3-------------

Return To Base

This File contains merely an interpretation of the represented musical piece.
It is not intended to replace any commercially available publishing, nor is it
guaranteed to represent an exact transcription of any commercially or otherwise released
piece.

Ed Bick's Tab Archive, 1997