Estimated Prophet

Estimated Prophet

Terrapin Station

(Weir/Barlow)

 Last Updated 03/25/96

General Rules On Chord Charts

Bob Intro
Jerry Intro
Bob During The Verse
F#m Bm6 My time coming, anyday, don't worry about me, no F#m Bm6 Been so long I felt this way, I'm in no hurry, no F#m Bm6 Rainbows and down that highway where ocean breezes blow F#m Bm6 My time coming, voices saying they tell me where to go. Verse Ending
F#m Bm6 Don't worry about me, nah nah, don't worry about me,no F#m Bm6 And I'm in no hurry, nah, nah nah, I know where to go. Chorus
G C G F C California, preaching on the burning shore G C G F C California, I'll be knocking on the golden door G C G F Like an angel, standing in a shaft of light C G C G F C Rising up to paradise, I know I'm gonna shine. My time coming, anyday, don't worry about me, no It's gonna be just like they say, them voices tell me so Seems so long I felt this way and time sure passin' slow Still I know I lead the way, they tell me where I go. Don't worry about me, no no no, don't worry about me, no and I'm in no hurry, no no no, I know where to go. California, a prophet on the burning shore California, I'll be knocking on the golden door Like an angel, standing in a shaft of light Rising up to paradise, I know I'm gonna shine. G C G F C You've all been asleep, you would not believe me G C G F C Them voices tellin' me, you will soon receive me G C G Standin' on the beach, the sea will part before me G F C (Fire wheel burning in the air!) G C G You will follow me and we will ride to glory, G F C (way up, the middle of the air!) Break
Dm E7 And I'll call down thunder and speak the same Dm E7 And my work fills the sky with flame Dm E7 And might and glory gonna be my name Dm F A And men gonna light my way. Bm Dm Am Cm Gm Bbm Ab Bb My time coming, anyday, don't worry about me, no It's gonna be just like they say, them voices tell me so Seems so long I felt this way and time sure passin' slow My time coming, anyday, don't worry about me, no Don't worry about me, no no no, don't worry about me, no And I'm in no hurry, no no no, don't worry about me, no.

Bob Intro

(^) Slide Up  (\) Slide Down  (h) Hammer On  (p) Pull Off  (b) Bend

MP3 Tab Support Audio (35K)

MIDI Tab Support Audio (estimat1.mid)

MIDI file both B&J parts

E--2---1---2--2-----2--2--5--4--2--2--0--2---2--2-----------
B--2---2---2--2-----2--2--2--2--2--2--0--2---2--2---2-2-3---
G--2---1---2--2-----2--2--2--2--2--2--1--2---2--2---2-2---4-
D--4---3---4--4-----4--4--2--2--4--4--2--4---4--4---4-4-----
A--4-------4--4-----4--4--4--4--4--4--2--4---4--4---4-4-----
E--2-------2--2-----2--2--2--2--2--2--0--2---2--2---2-2-----

Return To Base

Jerry Intro

(^) Slide Up  (\) Slide Down  (h) Hammer On  (p) Pull Off  (b) Bend

MP3 Tab Support Audio (15K)

MIDI Tab Support Audio (estimat1.mid)

MIDI file both B&J parts

E-----------------------------------------------------------
B-----------------------------------------------------------
G---------------------2-------------------------------------
D------------------------4---2-------4----------------------
A-----------2--4----------------4------2--4-----------------
E----2---5-----------------------------------5--------------

Return To Base

Bob During The Verse

(^) Slide Up  (\) Slide Down  (h) Hammer On  (p) Pull Off  (b) Bend

MP3 Tab Support Audio (20K)

MIDI Tab Support Audio (estimat2.mid)

E--2------2--2---2----2--2---2------------------------------
B--2------2--2---2----2--2---2-----2-2-3--------------------
G--2------2--2---2----2--2---2-----2-2---4------------------
D--4------4--4---4----4--4---4-----4-4----------------------
A--4------4--4---4----4--4---4-----4-4----------------------
E--2------2--2---2----2--2---2-----2-2----------------------

Return To Base

Verse Ending

(^) Slide Up  (\) Slide Down  (h) Hammer On  (p) Pull Off  (b) Bend

MP3 Tab Support Audio (29K)

MIDI Tab Support Audio (estimat3.mid)

Bob
E--2---1---2--2-----2--2--5--4--2--2--0--2---2--2-----------
B--2---2---2--2-----2--2--2--2--2--2--0--2---2--2---2-2-3---
G--2---1---2--2-----2--2--2--2--2--2--1--2---2--2---2-2---4-
D--4---3---4--4-----4--4--2--2--4--4--2--4---4--4---4-4-----
A--4-------4--4-----4--4--4--4--4--4--2--4---4--4---4-4-----
E--2-------2--2-----2--2--2--2--2--2--0--2---2--2---2-2-----

  Jerry
E-----------------------------------------------------------
B-----------------------------------------------------------
G-----------------------------------------------------------
D-----------------------------------------------------------
A--------------------------------2-4------------------------
E--2-2-0-2-0-2-----2-2-0-2-0-2-5----------------------------

Return To Base

Chorus

(^) Slide Up  (\) Slide Down  (h) Hammer On  (p) Pull Off  (b) Bend

MP3 Tab Support Audio (27K)

MIDI Tab Support Audio (estimat4.mid)

MIDI includes chords

MP3 Tab Support Audio (12K)

  G               C   G          F     C
E-----------------------------------------------------------
B---10^12--10-----13-------10^12----10----------------------
G--------------12----------------12----12-------------------
D-----------------------------------------------------------
A-----------------------------------------------------------
E-----------------------------------------------------------

Return To Base

Break

(^) Slide Up  (\) Slide Down  (h) Hammer On  (p) Pull Off  (b) Bend

MP3 Tab Support Audio (25K)

MIDI Tab Support Audio (estimat5.mid)

MIDI file includes chords

   Four times               1st 3 times     Last time
   Dm                       E7              F       A
E------------------------|----------------|-----------------
B------------------------|----------------|-----------------
G------------------------|----------------|----------------2
D------------------------|----------------|--------------2--
A--5-5-3-5---3-5-5-3-2---|---7-7-5-7-5-7--|---0--3--0--4----
E----------------------5-|----------------|-1---------------

MP3 Tab Support Audio (33K)

   Bm      Dm    Am      Cm  Gm    Bbm  Fm    Ab      Bb
E-------------|------------|----------|-------4-3-4---4-3-4-
B-------------|------------|----------|---------------------
G-------12-10-|-------10-8-|-----8-6--|---------------------
D--9-12-------|--7-10------|-5-8------|3-6-3----------------
A-------------|------------|----------|---------------------
E-------------|------------|----------|---------------------

Return To Base

This File contains merely an interpretation of the represented musical piece.
It is not intended to replace any commercially available publishing, nor is it
guaranteed to represent an exact transcription of any commercially or otherwise released
piece.

Ed Bick's Tab Archive, 1997