Night They Drove Old Dixie Down, The

The Night They Drove Old Dixie Down

Jerry Garcia Band

(Robertson)


General Rules On Chord Charts

Intro
Am C F F/E Dm

Intro

(^) Slide Up  (\) Slide Down  (h) Hammer On  (p) Pull Off  (b) Bend

MP3 Tab Support Audio (6K)

MIDI Tab Support Audio (dixie1.mid)

E-----------------------------------------------------------
B-----------------------------------------------------------
G--------------------------0--2-----------------------------
D---------------0----2--3-----------------------------------
A------0--2--3----------------------------------------------
E-----------------------------------------------------------

Return To Base

Verse Ending

(^) Slide Up  (\) Slide Down  (h) Hammer On  (p) Pull Off  (b) Bend

MP3 Tab Support Audio (12K)

MIDI Tab Support Audio (dixie2.mid)

E--------------------0---1----------------------------------
B--------------------1---1----------------------------------
G-------------0------0---2----------------------------------
D--------0h2---------2---3----------------------------------
A-----3----------3---3---3----------------------------------
E--------------------3---1----------------------------------

Return To Base

This File contains merely an interpretation of the represented musical piece.
It is not intended to replace any commercially available publishing, nor is it
guaranteed to represent an exact transcription of any commercially or otherwise released
piece.
Ed Bick's Tab Archive