Morning Dew

Europe 72

(Dobson)

 Last Updated 01/22/96

General Rules On Chord Charts

This version more closely follows the Europe '72 than the original GD version.

Intro
Riff
D C G D Walk me out in the morning dew my honey, D C G D Walk me out in the morning dew today. F C Em D I can't walk you out in the morning dew my honey, F C Em D I can't walk you out in the morning dew today. I thought I heard a baby cry this morning, I thought I heard a baby cry this today. You didn't hear no baby cry this morning, You didn't hear no baby cry today. Where have all the people gone my honey, Where have all the people gone today. There's no need for you to be worrying about all those people, You never see those people anyway. I thought I heard a young man moan this morning, I thought I heard a young man moan today. I thought I heard a young man moan this morning, I can't walk you out in the morning dew today. Morning Dew Walk Up
Walk me out in the morning dew my honey, Walk me out in the morning dew today. I'll walk you out in the morning dew my honey, I guess it doesn't really matter anyway, I guess it doesn't matter anyway, I guess it doesn't matter anyway, Guess it doesn't matter anyway.

Intro

(^) Slide Up  (\) Slide Down  (h) Hammer On  (p) Pull Off  (b) Bend

MP3 Tab Support Audio (30K)

MIDI Tab Support Audio (mdew1.mid)

E----2-|-------|------|------------------|
B----3-|-------|------|------------------|
G----2-|-------|------|------------------|
D----0-|-------|----3-|-------------2--0-|
A------|-0-2-3-|-3----|-------0--3-------|
E------|-------|------|-1--3-------------|

E-----------------|-----------------------
B----------3p1--3-|-------1-------1-------
G-2p0--2----------|--0h2-----0h2----0h2---
D-----------------|----------------------0
A-----------------|-----------------------
E-----------------|-----------------------

Return To Base

Riff

(^) Slide Up  (\) Slide Down  (h) Hammer On  (p) Pull Off  (b) Bend

MP3 Tab Support Audio (38K)

MIDI Tab Support Audio (mdew2.mid)

E----10p8--10--8---8p7-----7h8--7---------------------------
B----------------------------------10--8--10----------------
G-----------------------------------------------------------
D-----------------------------------------------------------
A-----------------------------------------------------------
E-----------------------------------------------------------

Return To Base

Walk-Up

(^) Slide Up  (\) Slide Down  (h) Hammer On  (p) Pull Off  (b) Bend

MP3 Tab Support Audio (19K)

MIDI Tab Support Audio (mdew3.mid)

The MIDI file includes both of the following parts, overlayed. You should be able to separate them using your MIDI player to help you learn them.


                                                               D (BOLD,
                                                              HARD, STROKE)
E---------------------------------------------------8----8--9--10
B--------------------------------------7---8--8^10----10-------10
G--------------------------6--7---7^9--------------------------11
D-0--2--4--5^7--10--7--10--------------------------------------12
A--------------------------------------------------------------12
E--------------------------------------------------------------10

Guitar 2 - 2X

                             D (BOLD, HARD, STROKE)
-----------------------------2
-----------------------------3
-----------------------------2
0-2---0----------------------0
--3---2-----0--3--0--3--4-----
----------3-------------------

Return To Base

This File contains merely an interpretation of the represented musical piece.
It is not intended to replace any commercially available publishing, nor is it
guaranteed to represent an exact transcription of any commercially or otherwise released
piece.

Ed Bick's Tab Archive, 1997