Dancin' In The Streets

Terrapin Station

(Stevenson/Gaye/Hunter)

 Last Updated 09/13/96

General Rules On Chord Charts

Old Style
Terrapin Station Style
A Hey, comin' out around the world A Are you ready for a brand new beat? A Oh, summer's here and the time is right, A For dancing in the street A They’re dancing in Chicago (dancing in the street) A Down in New Orleans (dancing in the street) A In New York City (dancing in the street) D All we need is music, sweet music (sweet, sweet music) D There'll be music everywhere (everywhere) A They'll be laughing, singing, music swinging A And dancing in the street C# It doesn't matter what you wear F#m Just as long as you are there B So come on, every guy, grab a girl E Everywhere around the world A They're dancing (dancing in the street) oh oh This is an invitation across the nation A chance for folks to meet There'll be swinging, swaying, music swingin’ And dancing in the street Philadelphia, PA now (dancing in the street) Baltimore and D.C. (dancing in the street) Can't forget the motor city (dancing in the street)

Old Style Intro

(^) Slide Up  (\) Slide Down  (h) Hammer On  (p) Pull Off  (b) Bend

MP3 Tab Support Audio (13K)

MIDI Tab Support Audio (dancnold.mid)

E-----------------------------------------------------------
B-----------------------------------------------------------
G------------4----------------------------------------------
D---7--7--5-----7-------------------------------------------
A------------------7----------------------------------------
E-----------------------------------------------------------

Return To Base

New Style Intro

(^) Slide Up  (\) Slide Down  (h) Hammer On  (p) Pull Off  (b) Bend

MP3 Tab Support Audio (35K)

MIDI Tab Support Audio (dancnnew.mid)

E-----------------------------------------------------------
B-----------------------------------------------------------
G--------4--------------------------------------------------
D--7--5-----7-----5--4--------------------------------------
A-----------------------7--5--------------------------------
E-----------------------------------------------------------

E-----------------------------------------------------------
B-----------------------------------------------------------
G-----------------------------------------------------------
D----7------------------4-4-------7-------------------------
A--------4-4--5-5--7-7--------------------------------------
E--5---------------------------5----------------------------

Return To Base

This File contains merely an interpretation of the represented musical piece.
It is not intended to replace any commercially available publishing, nor is it
guaranteed to represent an exact transcription of any commercially or otherwise released
piece.

Ed Bick's Tab Archive, 1997