Cream Puff War

Cream Puff War

San Francisco's Grateful Dead

(Garcia)

 Last Updated 05/20/96

General Rules On Chord Charts

Intro
A G D C Em A No, no! She can't take your mind and leave G D C Em A I know it's just another trick she's got up her sleeve G D C Em A I can't believe that she really wants you to die G D C Em A After all it's more than enough to pay for your lie A G D A Wait a minute, watch what you're doin' with your time E D C A G D C Em All the endless ruins of the past must stay behind, A Yeah Well, can't you see that you're killing each other's soul Well, you're both out in the streets and you got no place to go Your constant battes are getting to be a bore So go somewhere else and continue your cream puff war

Intro

(^) Slide Up  (\) Slide Down  (h) Hammer On  (p) Pull Off  (b) Bend

MP3 Tab Support Audio (18K)

MIDI Tab Support Audio (creampuf.mid)

E-----------------------------------------------------------
B-----------------------------------------------------------
G-----------------------------------------------------------
D-----------------------------------------------------------
A---------2--0--------2-------------------------------------
E---0--3--------0--3----------------------------------------

E-----------------------------------------------------------
B-----------------------------------------------------------
G-----------------------------------------------------------
D-----------------------------------------------------------
A---0--------0---------0-----------0------------------------
E------0--3------0--3-----3--0--3---------------------------

Return To Base

This File contains merely an interpretation of the represented musical piece.
It is not intended to replace any commercially available publishing, nor is it
guaranteed to represent an exact transcription of any commercially or otherwise released
piece.

Ed Bick's Tab Archive, 1997