Casey Jones

Casey Jones

Workingman's Dead

(Garcia/Hunter)

 Last Updated 02/13/96

General Rules On Chord Charts

MIDI file download
Intro Tabulature
C F Drivin’ that train, high on cocaine, C Casey Jones you’d better watch your speed F Trouble ahead, trouble behind C And you know that notion just crossed my mind. C D This old engine makes it on time F G Leaves central station at a quarter to nine C D Hits River Junction at seventeen to, F E7 Am G7 At a quarter to ten you know it’s travelin’ again Chorus C C# D Trouble ahead, a lady in red F G Take my advice you’d be better off dead C F Switch man sleepin’, train a hundred and two F E7 Am G7 Is on the wrong track and headed for you Chorus Solo Tabulature
(Follow verse 1 form) Trouble with you is the trouble with me, Got two good eyes but we still don’t see Come ‘round the bend you know it’s the end ‘Cause the fireman screams and the engine just gleams Repeat chorus with original chords any number of times C Bb F Drivin’ that train, high on cocaine, C Casey Jones you’d better watch your speed Bb F Trouble ahead, trouble behind C And you know that notion just crossed my mind. A7 D7 G7 C And you know that notion just crossed my mind.

Intro

(^) Slide Up  (\) Slide Down  (h) Hammer On  (p) Pull Off  (b) Bend

MP3 Tab Support Audio (11K)

MIDI Tab Support Audio (caseyjn1.mid)

E------------------------------------
B--8^10--8---------------------------
G----------7^9--7-------------7------
D------------------10--7--10-----10--
A------------------------------------
E------------------------------------

Return To Base

Solo 1

(^) Slide Up  (\) Slide Down  (h) Hammer On  (p) Pull Off  (b) Bend

MP3 Tab Support Audio (46K)

MIDI Tab Support Audio (caseyjn2.mid)

E---0--------------|-----------------|-------------7-8-7-7----
B---1--------------|-----------------|-------------8-8-8-8----
G---0--------------|--------4--7---4-|----10---10--7-9-7-7----
D---2---------2--5-|--4--7-----------|-7-----7----------------
A---3---2--5-------|-----------------|------------------------
E---3--------------|-----------------|------------------------

E---0--------------|-----------------------------------------
B---1--------------|-----------------------------------------
G---0--------------|--------4--7---4-------------------------
D---2---------2--5-|--4--7-----------------------------------
A---3---2--5-------|-----------------------------------------
E---3--------------|-----------------------------------------

E-----1---------0----------------------1--------------------
B-------1---------0-------1--3--1--0---0--------------------
G--3------2---------1-----2------------0--------------------
D-----------3---------2---2------------0--------------------
A-------------------------0------------2--------------------
E--------------------------------------3--------------------

Return To Base

Solo 2

(^) Slide Up  (\) Slide Down  (h) Hammer On  (p) Pull Off  (b) Bend

MP3 Tab Support Audio (44K)

MIDI Tab Support Audio (caseyjn3.mid)

E--8-10-11-11^12-|--8-7-6-5-|-8-5\4---5-8-5-------5-----8-----
B----------------|----------|-------6-------6--8-----8--------
G----------------|----------|---------------------------------
D----------------|----------|---------------------------------
A----------------|----------|---------------------------------
E----------------|----------|---------------------------------

Return To Base

This File contains merely an interpretation of the represented musical piece.
It is not intended to replace any commercially available publishing, nor is it
guaranteed to represent an exact transcription of any commercially or otherwise released
piece.

Ed Bick's Tab Archive, 1997