Bye And Bye

Kingfish

(Traditional)

 Last Updated 01/07/97

General Rules On Chord Charts

(No Chord)
We will understand it better bye and bye.
Scale Walk Down
A Well, it's A for the Ark, was a wonderful boat E Build it on land, you'll get water there to float A A7 D And B for the B beast, at the ending of the wood A E A We will understand it better bye and bye Scale Walk Up
A Children it's bye, bye, better bye and bye B E We will understand it better bye and bye. A Children it's bye, bye, better bye and bye E A We will understand it better bye and bye. One of these mornings comin' bright and soon Will the veil of the temple be torn in two, will it be made whole again? And when we get to heaven won't understand it then, We will understand it better bye and bye. Children it's bye, bye, better bye and bye We will understand it better bye and bye. Children it's bye, bye, better bye and bye We will understand it better bye and bye. This old world is not my home I got to seek that city that's been built by God And Jesus remembers I am a fallen sinner We will understand it better bye and bye. Children it's bye, bye, better bye and bye We will understand it better bye and bye. Children it's bye, bye, better bye and bye We will understand it better bye and bye. We will understand it better bye and bye. We will understand it better bye and bye.

Scale Walk Down

(^) Slide Up  (\) Slide Down  (h) Hammer On  (p) Pull Off  (b) Bend

MIDI Tab Support Audio (byebye1.mid)

E-----------------------------------------------------------
B-----------------------------------------------------------
G-----------------------------------------------------------
D---------0--1-----2----------------------------------------
A---0--4--------------4--0--2--0----------------------------
E-----------------------------------------------------------

Return To Base

Scale Walk Down

(^) Slide Up  (\) Slide Down  (h) Hammer On  (p) Pull Off  (b) Bend

MIDI Tab Support Audio (byebye2.mid)

E-----------------------------------------------------------
B-----------------------------------------------------------
G--2--1-----------------------------------------------------
D--------4--2-----------------------------------------------
A--------------4--0--2--0-----------------------------------
E-----------------------------------------------------------

Return To Base

This File contains merely an interpretation of the represented musical piece.
It is not intended to replace any commercially available publishing, nor is it
guaranteed to represent an exact transcription of any commercially or otherwise released
piece.

Ed Bick's Tab Archive, 1997