Black Muddy River

Black Muddy River

In The Dark

(Garcia/Hunter)

 Last Updated 03/27/96

General Rules On Chord Charts

Intro
A E A D A E A D A When the last rose of summer pricks my finger, A E A D A E A D And the hot sun chills me to the bone, A E A D A E A D A When I can't hear the song for the singer, F#m E D SN Bass C# B G# E And I can't tell my pillow from a stone, E A D A I will walk alone by the black muddy river, E D And sing me a song of my own, E A D A I will walk alone by the black muddy river, F#m E D And sing me a song of my own. When the last bolt of sunshine hits the mountain, And the stars start to splatter in the sky, When the moon hits the southwest horizon, With the scream of an eagle on the fly, I will walk alone by the black muddy river, And listen to the ripples as they moan, I will walk alone by the black muddy river, And sing me a song of my own. SN A G# A A# Bm E A A/G# F#m Black muddy river, roll on forever, E A E A I don't care how deep or wide, if you've got another side, D A D A D E A Roll muddy river, roll muddy river, black muddy river, roll. When it seems like the night will last forever, And there's nothing left to do but count the years, When the strings of my heart begin to sever, And stones fall from my eyes instead of tears, I will walk alone, by the black muddy river, And dream me a dream of my own, I will walk alone, by the black muddy river, And sing me a song of my own, sing me a song of my own.

Intro

(^) Slide Up  (\) Slide Down  (h) Hammer On  (p) Pull Off  (b) Bend

MP3 Tab Support Audio (60K)

MIDI Tab Support Audio (blckmddy.mid)

E-----------------------------------------------------------
B--------2--0--2--3--2--0-----------------------------------
G--2--4--------------------2--------------------------------
D--------2--0--2--4--2--0-----4--2--------------------------
A-----------------------------------------------------------
E-----------------------------------------------------------

E-----------------------------------------------------------
B--------2--0--2--3--2--0-----------------------------------
G--2--4--------------------2--------------------------------
D--------2--0--2--4--2--0-----4-----------------------------
A-----------------------------------------------------------
E-----------------------------------------------------------

E-----------------------------------------------------------
B--------2--0--2--3--2--0-----------------------------------
G--2--4--------------------2--------------------------------
D--------2--0--2--4--2--0-----4--2--------------------------
A-----------------------------------------------------------
E-----------------------------------------------------------

E------------------------2----------------------------------
B------------------------3----------------------------------
G---2p1-----1--2--4--2---2----------------------------------
D--------4---------------0----------------------------------
A-----------------------------------------------------------
E-----------------------------------------------------------

Return To Base

This File contains merely an interpretation of the represented musical piece.
It is not intended to replace any commercially available publishing, nor is it
guaranteed to represent an exact transcription of any commercially or otherwise released
piece.

Ed Bick's Tab Archive, 1997