Big Railroad Blues

Skull & Roses

(Lewis)

 Last Updated 04/10/96

General Rules On Chord Charts

Intro
Riff
A Well my mama told me, my papa told me too, D A Now my mama told me, papa told me too, E Well I shouldn't be here D A Tryin' to sing these railroad blues. Wish I had a'listened, oh-oh to what mama said, Wish I had a'listened, oh-oh to what mama said, Well I wouldn't be here Tryin' to sleep in this cold iron bed. Well I went to the depot, I never got there on time, Went down to the depot, never got there on time. Well my train done left, She's a rollin' down the line. Mister jailer go away now, don't tell me no lies, Mister jailer go away, don't tell me no lies, When the train's going down, She's rollin' down the line. Well my mama told me, my papa told me too, Now my mama told me, papa told me too, Well I shouldn't be here Tryin' to sing these railroad blues.

Intro

(^) Slide Up  (\) Slide Down  (h) Hammer On  (p) Pull Off  (b) Bend

MP3 Tab Support Audio (15K)

MIDI Tab Support Audio (Bigrr1.mid)

E-----------------------------------------------------------
B-----------------------------------------------------------
G--2-2-----------2-2-0--------------------------------------
D--2-2---2-4-4---2-2---4-2-2---2----------------------------
A----------0-0---------------4------------------------------
E-----------------------------------------------------------

E-----------------------------------------------------------
B-----------------------------------------------------------
G----------------2--2---------------------------------------
D--2------2-2-4--2--2--4--2--2-----2------------------------
A--0--3h4-----------------------4---------------------------
E-----------------------------------------------------------

Return To Base

Riff

(^) Slide Up  (\) Slide Down  (h) Hammer On  (p) Pull Off  (b) Bend

MP3 Tab Support Audio (7K)

MIDI Tab Support Audio (Bigrr2.mid)

E-----------------------------------------------------------
B--5^7--5---------------------------------------------------
G----------6\4---2-2----------------------------------------
D-----------------------------------------------------------
A-----------------------------------------------------------
E-----------------------------------------------------------

Return To Base

This File contains merely an interpretation of the represented musical piece.
It is not intended to replace any commercially available publishing, nor is it
guaranteed to represent an exact transcription of any commercially or otherwise released
piece.

Ed Bick's Tab Archive, 1997