Believe It Or Not

None

(Garcia/Hunter)

 Last Updated 02/16/97

General Rules On Chord Charts

Thanks to David McKenney for providing the source.

Some Chords You Might Need
C Just a few moments, just a piece of your time, D G Is all I am asking, and I'll give you mine. Fmaj7 C C C/B Am Just a few moments, out of all you have got, C G Fmaj7 To show how I love you, believe it or not. C G Bbsus4 Bb Bb F C To show how I love you, believe it or not. This Bb riff
I know I'm no angel, my prospect's alright. As a firm mind in sorrow, when the rivers run dry. But I roll up my shirt sleeves and give my best shot, To show that I love you, believe it or not. Just to show that I love you, believe it or not. Em EmMaj7 Em7 A Done time in the lockup, done time on the street. C G Fmaj7 D GbDim7 Done time on the upswing, and time in defeat. Em EmMaj7 Em7 A I know what I'm asking, I know it's a lot, C G C G Fmaj7 To tell you I love you, believe it or not. Right now while the sun shines, on the crest of a hill. With the breeze and the fire and a red whip-or-whil, Making music together, in a word time forgot. Let me show how I love you, believe it or not. Let me show how I love you, believe it or not.

Unusual Chords

(^) Slide Up  (\) Slide Down  (h) Hammer On  (p) Pull Off  (b) Bend

         EmMaj7                  Gbdim7
  |---|---|---|---|---|   |---|---|---|---|---|
  |   |   X   |   |   |   |   |   X   |   X   |
  |---|---|---|---|---|   |---|---|---|---|---|
  |   X   |   |   |   |   |   |   |   X   |   X
  |---|---|---|---|---|   |---|---|---|---|---|
  |   |   |   |   |   |   |   |   |   |   |   |
  |---|---|---|---|---|   |---|---|---|---|---|
  |   |   |   |   |   |   |   |   |   |   |   |
  |---|---|---|---|---|   |---|---|---|---|---|

Return To Base

Bb Riff

(^) Slide Up  (\) Slide Down  (h) Hammer On  (p) Pull Off  (b) Bend

MIDI Tab Support Audio (believe.mid)

E----------------------------0------------------------------
B----3h4---3--------3---1----1------------------------------
G----------------------------0------------------------------
D----3h5---3--------3---3----2------------------------------
A----------------------------3------------------------------
E-----------------------------------------------------------


Return To Base

This File contains merely an interpretation of the represented musical piece.
It is not intended to replace any commercially available publishing, nor is it
guaranteed to represent an exact transcription of any commercially or otherwise released
piece.

Ed Bick's Tab Archive, 1997