Asia Minor

Kingfish

(Carter/Gilbert/Quigley/Hovey)

 Last Updated 01/12/97

General Rules On Chord Charts

Intro
Main Riff
Lead lick over main riff
Kilhonni Hotel for the first night, Just below the black sea Istanbul left me cold turkey, Better places to be D C E Headin' east from Asia Minor, rendezvous in Katmandu I'm humpin' a camel from Kabul, Pakistan not very far My Afghani Brown is takin' me down Into Apashawhr Headin' east from Asia Minor, rendezvous in Katmandu C#m D There must be silver linin' C#m E Well, I come so far to find her C#m A I know there's no place finer D E Go to get away from Asia Minor Jam on E chord, then intro riff again I'm humpin' a camel from Kabul, Pakistan not very far My Afghani Brown is takin' me down Into Apashawhr Headin' east from Asia Minor, rendezvous in Katmandu There must be silver linin' Well, I come so far to find her I know there's no place finer Go to get away from Asia Minor

Intro

(^) Slide Up  (\) Slide Down  (h) Hammer On  (p) Pull Off  (b) Bend

MIDI Tab Support Audio (asiam1.mid)

E-----------------------------------------------------------
B-----------------------------------------------------------
G-----------------------------------------------------------
D-------------------7---------------------------------------
A----------------7------------------------------------------
E----5--5---7h9---------------------------------------------

Return To Base

Main Riff

(^) Slide Up  (\) Slide Down  (h) Hammer On  (p) Pull Off  (b) Bend

MIDI Tab Support Audio (asiam2.mid)

E-----------------------------------------------------------
B-----------------------------------------------------------
G-----------------------------------------------------------
D----------------7------------------------------------------
A-------------7-----9---------------------------------------
E---5----7h9------------------------------------------------

Return To Base

Lead lick over riff

(^) Slide Up  (\) Slide Down  (h) Hammer On  (p) Pull Off  (b) Bend

MIDI Tab Support Audio (asiam3.mid)

E---9---7--5------------------------------------------------
B---10--7--5------------------------------------------------
G-------------4h6---6p4--2-------2--4--2--------------------
D---------------------------2h4-----------------------------
A-----------------------------------------------------------
E-----------------------------------------------------------

Return To Base

This File contains merely an interpretation of the represented musical piece.
It is not intended to replace any commercially available publishing, nor is it
guaranteed to represent an exact transcription of any commercially or otherwise released
piece.

Ed Bick's Tab Archive, 1997