Alligator

Alligator

Anthem Of The Sun

(Hunter)

 Last Updated 04/18/96

General Rules On Chord Charts

Guitar Intro
Kazoo Intro
C F Am Sleepy Alligator in the noon day sun, C F Am Lyin' by the river just like he usually done. C F Am Call for his whiskey, he can call for his tea, C F Am Call all he want to, but he can't call me. G Oh no! I've been there before, A And I ain't gonna come around here no more. C Dm F C C7 F C (Hung up, waitin' for windy day) F C (Hung up, waitin' for windy day) F C Creepy alligator coming all around the bend, F C Shoutin' about the times when we was mutual friends, F C I checked my memory and I checked it quick, yes I will. F C I checked it runnin' some old kind of trick. Dm A Oh no! Well I've been there before, G7 A And I ain't gonna come around here any more. A/E Part
A E A E Sailin' down the river in an old canoe, A E A bunch of bugs and an old tennis shoe. A E Out of the river all ugly and green, A E Came the biggest old alligator that I've ever seen! A E Teeth big and pointy and his eyes were buggin' out, A E Contracted the union, put the beggars to rout. A E Screamin' and yellin', he was pickin' his chops, A E He never runs he just stumbles and hops. A E Just out of prison on ten dollars bail, A E Mumblin' bitches and waggin' his tail. E D Em E

Guitar Intro

(^) Slide Up  (\) Slide Down  (h) Hammer On  (p) Pull Off  (b) Bend

MP3 Tab Support Audio (20K)

MIDI Tab Support Audio (alliintr.mid)

                     C
E-------12-12-11-10-----------------------------------------
B--6^9------------------------------------------------------
G-----------------------------------------------------------
D--------------------10-10-10-10-10---8--5-----5--8--5------
A-------------------------------------------8-----------8--8
E-----------------------------------------------------------
   F          Am          C
E-----------------------------------------------------------
B-------------------8--10-----------------------------------
G-------5--7---7^9------------------------------------------
D--5^7---------------------10-10-10-10-10-------------------
A-----------------------------------------------------------
E-----------------------------------------------------------

Return To Base

Kazoo Intro

(^) Slide Up  (\) Slide Down  (h) Hammer On  (p) Pull Off  (b) Bend

MP3 Tab Support Audio (22K)

MIDI Tab Support Audio (allikazo.mid)

    Kazoo Part
E-----------------------------------------------------------
B---10--8---------------------------------------------------
G----------9--7---------------------------------------------
D---------------10--7--10--10--7----------------------------
A-----------------------------------------------------------
E-----------------------------------------------------------

Return To Base

A/E Part

(^) Slide Up  (\) Slide Down  (h) Hammer On  (p) Pull Off  (b) Bend

MP3 Tab Support Audio (28K)

MIDI Tab Support Audio (alliae.mid)

E-----------------------------------------------------------
B-----------------------------------------------------------
G-----------------------------------------------------------
D------------------------------------2--4--2--4--2----------
A--0-----------0--2--4p2--0-------------------------4--2--0-
E-----2p0---2----------------2----0-------------------------

Return To Base

This File contains merely an interpretation of the represented musical piece.
It is not intended to replace any commercially available publishing, nor is it
guaranteed to represent an exact transcription of any commercially or otherwise released
piece.

Ed Bick's Tab Archive, 1997