View Albums
Learn how to play Cosmic Charlie tease on the rukind.com forums Cosmic Charlie

Cosmic Charlie

Cosmic Charlie

Aoxomoxoa

(Garcia/Hunter/Lesh)

 Last Updated 03/03/96

General Rules On Chord Charts

A ->  A slow bluesy feel

A
Cosmic Charlie how do you do?
A                              G
Truckin' in style along the avenue.
A
Dum de dum de dooodley do.
A     G                D       A           A   G   D   A
Go on home your mama's calling you.

Kalico, Kahlia, come tell me the news.
Calamity's waiting for a way to get to her.
Rosy red and electric blue
I bought you a paddle for your paper canoe.

Bridge 1
A7 Say you'll come back when you can D A D E Whenever your airplane happens to land. A7 Maybe I'll be back here too D E A Em A Em It all depends on what's with you. Hung up waiting for a windy day Kite on ice since the first of February. Mama keeps saying that the wind might blow , But standing here I say I just don't know. New ones comin' as the old ones go, Everything's moving here but much too slowly, A little bit quicker and we might have time, To say "How do you do?" before we're left behind. C#m F#m E G D A D Callio pe wail like a seaside zoo. C#m Bm A E The very last lately inquired about you, D A D It's really very one or two. E B D A The first you wanted, the last I knew. I just wonder if you shouldn't feel, Less concerned about the deep unreal, The very first word is "How do you do?", The last "Go home your mama's callin' you." A G D A Calling you, Verse Jam A G D A Go on home your mama's calling you. Ending
A E7 A Go on home your mama's calling you.

Say You'll Come Back

(^) Slide Up  (\) Slide Down  (h) Hammer On  (p) Pull Off  (b) Bend

MP3 Tab Support Audio (50K)

MIDI Tab Support Audio (cosmic1.mid)

E--3---2------0---------------------------------------------
B------------------3----2----3----5-------------------------
G--4---2------0---------------------------------------------
D------------------4----2----4----5-------------------------
A-----------------------------------------------------------
E-----------------------------------------------------------
   Say you'll come back when you  can
   May be     I'll be   back here too

E------------------------------------0----------------------
B---------0-2----3---2----0--0----2--0----------------------
G--1^2-------------------------------1----------------------
D------------------------------------0----------------------
A------------------------------------2----------------------
E------------------------------------0----------------------
   Whenever your airplane happens to land

Return To Base

Outro

(^) Slide Up  (\) Slide Down  (h) Hammer On  (p) Pull Off  (b) Bend

MP3 Tab Support Audio (23K)

MIDI Tab Support Audio (cosmic2.mid)

E--8^9--9\7--5------------5---------------------------------
B--------------5--5--3\2------------------------------------
G--8^9--9\7--6----------------------------------------------
D-----------------------------------------------------------
A-----------------------------------------------------------
E-----------------------------------------------------------

Return To Base

This File contains merely an interpretation of the represented musical piece.
It is not intended to replace any commercially available publishing, nor is it
guaranteed to represent an exact transcription of any commercially or otherwise released
piece.

Ed Bick's Tab Archive, 1997