View Albums
Learn how to play China Doll on the rukind.com forums China Doll

China Doll

China Doll

From The Mars Hotel

(Garcia/Hunter)

 Last Updated 10/18/96

General Rules On Chord Charts

Intro
Dm Fmaj7 A pistol shot, at five o'clock, Bo7 Chord
Bo7 Bb The bells of heaven ring, A7 Dm Tell me what you done it for, F C A7 No I won't tell you a thing. VerseEnding
Yesterday I begged you Before I hit the ground, All I leave behind me Is only what I found. If you can abide it, Let the hurdy-gurdy play, Stranger ones have come by here Before they flew away. I will not condemn you Nor yet would I deny, I would ask the same of you, Am But failing, will not die. A7 D A Take up your china doll, (take up your china doll, Whoooo) Ending
G D It's only fractured; just a little nervous from the fall. G D G D La-la-la-la-la-la-la.

Intro

(^) Slide Up  (\) Slide Down  (h) Hammer On  (p) Pull Off  (b) Bend

MP3 Tab Support Audio (36K)

MIDI Tab Support Audio (chinad1.mid)

E--0h1p0----------------------------------------------------
B---------3-------------------------------------------------
G------------2-----2----------------------------------------
D---------------3-----2h3p2-----0---------------------------
A----------------------------3------------------------------
E-----------------------------------------------------------

E---1-----------1-----1-------1-----------------------------
B------3-----3-----3------3---3-----------------------------
G---------2-------------------2-----------------------------
D-----------------------------0-----------------------------
A-----------------------------------------------------------
E-----------------------------------------------------------

Return To Base

Bo7 Chord

(^) Slide Up  (\) Slide Down  (h) Hammer On  (p) Pull Off  (b) Bend

MP3 Tab Support Audio (11K)

MIDI Tab Support Audio (chinad2.mid)

            Bo7
  |---|---|---|---|---|     E-------------1-----1----
  |   |   |   X   |   X     B----------3--------3----
  |---|---|---|---|---|     G-------1-----------1----
  |   X   |   |   |   |     D------------------------
  |---|---|---|---|---|     A---2---------------2----
  |   |   |   |   X   |     E------------------------
  |---|---|---|---|---|
  |   |   |   |   |   |
  |---|---|---|---|---|

Return To Base

Verse Ending

(^) Slide Up  (\) Slide Down  (h) Hammer On  (p) Pull Off  (b) Bend

MP3 Tab Support Audio (17K)

MIDI Tab Support Audio (chinad3.mid)

       C                          A7
E------0----------------------------------------------------
B------1--------------------------2-------------------------
G------0--------------------------0-------------------------
D------2--------------------------2-------------------------
A------3---------------2h3p2------0-------------------------
E-----------------------------3-----------------------------
 . . . thing

Return To Base

Ending

(^) Slide Up  (\) Slide Down  (h) Hammer On  (p) Pull Off  (b) Bend

MP3 Tab Support Audio (38K)

MIDI Tab Support Audio (chinad4.mid)

E-----3---2---0-------------------2-------------------------
B-----------------3----0----------3-------------------------
G-------------------------2---0---2-----0-------------------
D---------------------------------0----------4----0---------
A-----------------------------------------------------------
E-----3-----------------------------------------------------
      Just

Return To Base

This File contains merely an interpretation of the represented musical piece.
It is not intended to replace any commercially available publishing, nor is it
guaranteed to represent an exact transcription of any commercially or otherwise released
piece.

Ed Bick's Tab Archive, 1997