View Albums
Learn how to play Dear Prudence on the rukind.com forums Dear Prudence

Dear Prudence

Jerry Garcia Band

(Lennon/McCartney)

 Last Updated 03/02/97

General Rules On Chord Charts

Some Chords You Might Need
White Album Intro
D D7 D6 D+ D D7 D6 D+ Dear Prudence, D D7 D6 D+ Won't You Come Out To Play? D D7 D6 D+ Dear Prudence, D D7 D6 D+ Meet The Brand New Day D D7 The Sun Is Up, The Sky Is Blue, D6 D+ It's Beautiful and So Are You D D7 Dear Prudence, C G D Won't You Come Out To Play? Dear Prudence, Open Your Eyes. Dear Prudence, Greet The Sunny Sky The Wind Is Low, The Birds Will Sing, That You Are Part Of Everything Dear Prudence, Open Your Eyes. D G Look Around, 'Round, 'Round A G Look Around, 'Round, 'Round F Ab G D Dear Prudence, Let Me See You Smile. Dear Prudence, Like A Little Child The Clouds Will Be A Daisy-Chain So Let Me See You Smile Again Dear Prudence, Won't You Let Me See You Smile?

Unusual Chords

(^) Slide Up  (\) Slide Down  (h) Hammer On  (p) Pull Off  (b) Bend

           D6                      D+
  |---|---|---|---|---|   |---|---|---|---|---|
  |   |   |   |   |   |   |   |   |   |   |   |
  |---|---|---|---|---|   |---|---|---|---|---|
  |   |   |   |   |   X   |   |   |   |   |   X
  |---|---|---|---|---|   |---|---|---|---|---|
  |   |   |   |   X   |   |   |   |   X   X   |
  |---|---|---|---|---|   |---|---|---|---|---|
  |   |   |   X   |   |   |   |   X   |   |   |
  |---|---|---|---|---|   |---|---|---|---|---|


Use this G & A  during the "Look Around" part.

            G                       A
 3|---|---|---|---|---|  5|---|---|---|---|---|
  |   |   |   |   X   X   |   |   |   |   X   X
  |---|---|---|---|---|   |---|---|---|---|---|
  |   |   |   X   |   |   |   |   |   X   |   |
  |---|---|---|---|---|   |---|---|---|---|---|
  |   |   |   |   |   |   |   |   |   |   |   |
  |---|---|---|---|---|   |---|---|---|---|---|
  |   |   |   |   |   |   |   |   |   |   |   |
  |---|---|---|---|---|   |---|---|---|---|---|

Return To Base

White Album Intro

(^) Slide Up  (\) Slide Down  (h) Hammer On  (p) Pull Off  (b) Bend



E--------12----------10---------8-------7-------------------
B----10----------10---------10-------8----------------------
G-----------------------------------------------------------
D-----------------------------------------------------------
A-----------------------------------------------------------
E-----------------------------------------------------------

E------5-------3--------3--------2------2------2------2-----
B---7-------5-------5--------3---3---3--1---3--3---3--3-----
G--------------------------------2------2------4------3-----
D--------------------------------0------0------0------0-----
A-----------------------------------------------------------
E-----------------------------------------------------------

Return To Base

This File contains merely an interpretation of the represented musical piece.
It is not intended to replace any commercially available publishing, nor is it
guaranteed to represent an exact transcription of any commercially or otherwise released
piece.

Ed Bick's Tab Archive, 1997