View Albums
Learn how to play Black Throated Wind on the rukind.com forums Black Throated Wind

Black Throated Wind

Black Throated Wind

Ace

(Weir/Barlow)

 Last Updated 02/13/96

General Rules On Chord Charts

Intro Tabulature
E F#m It’s bringing me down, I'm running aground, D A E Blind in the light of the interstate cars E F#m Passing me by, the busses and semi's, D A E Plunging like stones from a slingshot on mars Verse Walk Up
A D But I'm here by the road, bound to the load Bm E That I picked up in ten thousand cafes and bars A D Alone with the rush of the drivers who won't pick me up Bm E The highway, the moon, the clouds, and the stars D C#m A Black throated wind, keeps on pouring in Em C A With its words of a life where nothing is new D C#m Em A Ah, mother american night, I'm lost from the light G D A Oh, I'm drowning in you I left St. Louis, city of blues, in the midst of a storm I'd rather forget Short Jerry Lick
I tried to pretend it came to an end Cause you weren't the woman I once thought I'd met But I can't deny, that times have gone by Bm Where I never had doubts or thoughts of regret And I was a man when all this began Who wouldn't think twice about being there yet Black throated wind, whispering sin And it speaks of a life that passes like dew It's forced me to see that you've done better by me Better by me than I've done by you Now what's to be found racing around. You carry your pain wherever you go All full of the blues and trying to lose You ain't gonna learn what you don't wanna know So I give you my eyes, and all of their lies Please help them to learn as well as to see Capture a glance, and make it dance Of looking at you, looking at me Black throated wind, keeps on pouring in With its words of a lie that could almost be true Ah, mother american night, here comes the light I'm turning around, that's what I'm gonna do Going back home that's what I'm gonna do

Intro

(^) Slide Up  (\) Slide Down  (h) Hammer On  (p) Pull Off  (b) Bend

MP3 Tab Support Audio (36K)

MIDI Tab Support Audio (blckth1.mid)

This part 2X

E-------------------------------
B--11^12-12---8^9---9^7--5--3---
G-------------------------------
D--11^12-12---8^9---9^7--6--4---
A-------------------------------
E-------------------------------

E----------------------
B----------------------
G----------------------
D---------0h2----------
A--0--2----------------
E---------------0------

Return To Base

Walk Up

(^) Slide Up  (\) Slide Down  (h) Hammer On  (p) Pull Off  (b) Bend

MP3 Tab Support Audio (21K)

MIDI Tab Support Audio (blckth2.mid)

E--5--7--9--12---10--9--7--5--2-----------------------------
B-----------------------------3-----------------------------
G--6--7--9--12---11--9--7--6--4-----------------------------
D-----------------------------4-----------------------------
A-----------------------------2-----------------------------
E-----------------------------------------------------------

Return To Base

Jerry Riff

(^) Slide Up  (\) Slide Down  (h) Hammer On  (p) Pull Off  (b) Bend

MIDI Tab Support Audio (blckth3.mid)

E-----------------------------------------------------------
B--2----------2---------------------------------------------
G----4--2--4-----4--2---------------------------------------
D-----------------------------------------------------------
A-----------------------------------------------------------
E-----------------------------------------------------------

Return To Base

This File contains merely an interpretation of the represented musical piece.
It is not intended to replace any commercially available publishing, nor is it
guaranteed to represent an exact transcription of any commercially or otherwise released
piece.

Ed Bick's Tab Archive, 1997