View Albums
Learn how to play The Music Never Stopped on the rukind.com forums Music Never Stopped, The

Music Never Stopped, The

Blues For Allah

(Weir/Barlow)

 Last Updated 01/31/97

General Rules On Chord Charts

Intro 1
Intro 2
Chords You Might Need
E A C There's mosquitoes on the river E A C Fish are rising up like birds E It's been hot for seven weeks now, A C Too hot to even speak now, E Did you hear what I just heard? Say it might have been a fiddle Or it could have been the wind But there seems to be a beat now I can feel it my feet now Listen here it comes again! SN (On the D String) - E F# G G# A Ao7 There's a band out on the highway, (Band out on the highway) Bo/A A They're high steppin' into town (They’re dancin’ into town) A Ao7 It's a rainbow full of sound, (Whoooo) Bo/A A It's fireworks, calliopes and clowns (fireworks, calliopes and clowns) A6 Bm7-5 A/C# D#o7 Dm/F A/C# D7 E Everybody dancin' A6 Bm7-5 A/C# D#o7 C'mon children, C'mon children, Come on clap your hands. D E A D F G Sun went down in honey A D F G And the moon came up in wine, A You know stars were spinnin' dizzy, D F Lord the band kept us so busy G D E A E F# B We forgot about the time. They're a band beyond description, Like Jehovah's favorite choir People joining hand in hand While the music played the band, Lord, they're setting us on fire. Crazy rooster crowin' midnight, Balls of lightin' roll along Old men sing about their dreams, Women laugh and children scream And the band keeps playin' on. Keep on dancin' thru the daylight, (Keep on dancin' thru the daylight) Greet the mornin' air with song (Greet the mornin' air with song) No ones's noticed, but the band's all pack and gone. (packed & gone) Was it ever there at all? (we’re they ever here at all) But they keep on dancin' C'mon children, C'mon children, Come on clap your hands Well the cool breeze came on Tuesday, And the corn's a bumper crop And the fields are full of dancin' Full of singin' and romancin' The music never stopped.

Phil Intro

(^) Slide Up  (\) Slide Down  (h) Hammer On  (p) Pull Off  (b) Bend

MP3 Tab Support Audio (19K)

MIDI Tab Support Audio (msn1.mid)

E-----------------------------------------------------------
B-----------------------------------------------------------
G-----------------------------------------------------------
D------------------2--0-------------------------------------
A------------------------4----2p0--3------------------------
E---12\2--0--2--0-------------------------------------------

Return To Base

Jerry Intro

(^) Slide Up  (\) Slide Down  (h) Hammer On  (p) Pull Off  (b) Bend

MP3 Tab Support Audio (29K)

MIDI Tab Support Audio (msn2.mid)

E--17--14--15-----------------------------------------------
B--------------17--15---------------------------------------
G---------------------16--14--11^12-------------------------
D------------------------------------14\7--7----------------
A----------------------------------------------0-1-0---0----
E----------------------------------------------------3---3--

Return To Base

Unusual Chords

(^) Slide Up  (\) Slide Down  (h) Hammer On  (p) Pull Off  (b) Bend

           Ao7                     Bo/A                    A6
      0                       0                       0
 4|---|---|---|---|---|  1|---|---|---|---|---|  1|---|---|---|---|---|
  |   |   X   |   X   |   |   |   |   |   |   |   |   |   |   |   |   |
  |---|---|---|---|---|   |---|---|---|---|---|   |---|---|---|---|---|
  |   |   |   X   |   |   |   |   |   |   |   |   |   |   X   X   X   X
  |---|---|---|---|---|   |---|---|---|---|---|   |---|---|---|---|---|
  |   |   |   |   |   |   |   |   X   |   X   |   |   |   |   |   |   |
  |---|---|---|---|---|   |---|---|---|---|---|   |---|---|---|---|---|
  |   |   |   |   |   |   |   |   |   X   |   |   |   |   |   |   |   |
  |---|---|---|---|---|   |---|---|---|---|---|   |---|---|---|---|---|

           Bm7-5                   A/C#                    D#o7
          X
 1|---|---|---|---|---|  2|---|---|---|---|---|  1|---|---|---|---|---|
  |   |   |   |   |   X   |   |   X   X   |   |   |   |   X   |   X   |
  |---|---|---|---|---|   |---|---|---|---|---|   |---|---|---|---|---|
  |   X   |   X   |   |   |   |   |   |   |   |   |   |   |   X   |   X
  |---|---|---|---|---|   |---|---|---|---|---|   |---|---|---|---|---|
  |   |   |   |   X   |   |   X   |   |   |   |   |   |   |   |   |   |
  |---|---|---|---|---|   |---|---|---|---|---|   |---|---|---|---|---|
  |   |   |   |   |   |   |   |   |   |   X   |   |   |   |   |   |   |
  |---|---|---|---|---|   |---|---|---|---|---|   |---|---|---|---|---|

Return To Base

This File contains merely an interpretation of the represented musical piece.
It is not intended to replace any commercially available publishing, nor is it
guaranteed to represent an exact transcription of any commercially or otherwise released
piece.

Ed Bick's Tab Archive, 1997