View Albums
Learn how to play Slipknot on the rukind.com forums Slipknot!

Slipknot!

Help On the Way/Slip Knot!

Blues For Allah

(Grateful Dead)

 Last Updated 08/23/96

General Rules On Chord Charts

RA Tab Support Audio - Bob's Part (86K)


Segment 1
Tab Support Audio (slip1)


Tab Support Audio (slip1.mid)


This part 4x
      Fm                   Fm                  Cm       Fm
E-----8---8------8---8--|-----------------------------------
B-----9---9------9---9--|-----------------------------------
G-----10--10-----10--10-|----------5------------------------
D-----10--10-----10--10-|-------6-----8--5-----------5------
A-----8---8------8---8--|--6^8--------------6-----6-----8---
E-----------------------|----------------------8------------

Segment 2

RA Tab Support Audio (27K)


Tab Support Audio (slip2.mid)

   Fm
E-----------------------------------------------------------
B-----------------------------------------------------------
G--------5--------------------------------------------------
D-----6-----8--6--------------------------------------------
A--8--------------------------------------------------------
E-----------------------------------------------------------

   F#-7
E-----------5--8--5--------5--------------------------------
B--------7-----------7--------7--------7--------------------
G--5--8-----------------8--------8--5-----8--5--------------
D-----------------------------------------------7-----------
A-----------------------------------------------------------
E-----------------------------------------------------------

           F#-7
 4|---|---|---|---|---|
  |   |   X   |   X   |
  |---|---|---|---|---|
  |   |   |   X   |   X
  |---|---|---|---|---|
  |   |   |   |   |   |
  |---|---|---|---|---|
  |   |   |   |   |   |
  |---|---|---|---|---|


Segment 3

RA Tab Support Audio (19K)


Tab Support Audio (slip3.mid)

   Gm                                        Dm        Gm
E-----------------------------------------------------------
B-----------------------------------------------------------
G-----------7-------------------7---------------------------
D--------8-----10-----8------8-----10--7------------7-------
A--8^10------------------10---------------8------8-----10---
E--------------------------------------------10-------------

Segment 4

RA Tab Support Audio (23K)


Tab Support Audio (slip4.mid)

   Gm
E-----------------------------------------------------------
B-----------------------------------------------------------
G--------7--------------------------------------------------
D-----8-----10--8-------------------------------------------
A--10-------------------------------------------------------
E-----------------------------------------------------------
   G#-7
E-----------7-10--7--------7--------------------------------
B--------9-----------9--------9--------9--------------------
G--7--10----------------10------10--7-----10-7--------------
D-----------------------------------------------9-----------
A-----------------------------------------------------------
E-----------------------------------------------------------

           G#-7
 6|---|---|---|---|---|
  |   |   X   |   X   |
  |---|---|---|---|---|
  |   |   |   X   |   X
  |---|---|---|---|---|
  |   |   |   |   |   |
  |---|---|---|---|---|
  |   |   |   |   |   |
  |---|---|---|---|---|

Segment 5

RA Tab Support Audio (28K)
Tab Support Audio (slip5.mid)

   Em                    G             F#m
E---------------------|--17--14-----------------------------
B-------------12--15--|---------15-----17--14---------------
G---------12----------|------------16-----------------------
D--12^14--------------|-------------------------------------
A---------------------|-------------------------------------
E---------------------|-------------------------------------

   F               Em
E--15--12---------------------------------------------------
B----------13------15--12-----------------------------------
G--------------14----------12-------------------------------
D------------------------------14---------------------------
A-----------------------------------------------------------
E-----------------------------------------------------------

Segment 6

RA Tab Support Audio (25K)
Tab Support Audio (slip6.mid)

    Dm*                Em*             D                  A
E-----------------------------------------------------------
B-----------------------------------------------------------
G---14--11-------------12--9--------------------------------
D-----------12----------------10-------12--9----------------
A---------------14----------------12----------10------10^12-
E-------------------------------------------------12--------

*  Play these chords as follows:

      Dm      Em

E-----12------14--------------------------------------------
B-----12------14--------------------------------------------
G-----12------14--------------------------------------------
D-----------------------------------------------------------
A-----------------------------------------------------------
E-----------------------------------------------------------


Segment 7

RA Tab Support Audio (7K)
Tab Support Audio (slip7.mid)


2    Am                                 Em       Am
E-----------------------------------------------------------
B----------5----------------5-------------------------------
G-------5-----7----5-----5-----7--4-----------4-------------
D----7----------------7--------------5-----5-----7----------
A---------------------------------------7-------------------
E-----------------------------------------------------------

Jam  on Am


Segment 8

RA Tab Support Audio (30K)
Tab Support Audio (slip8.mid)

   3x
E------------------|--5------------5------------------------
B------------------|--7------------5------------------------
G------------------|--7------------5------------------------
D------------------|--7------------7------------------------
A------------5--7--|--5------------7------------------------
E---5--7--8--------|---------------5------------------------


This riff is identical to segment 7. It is played a total of 8 times. The first 4 times, it is played through once, followed by a resting on the Am chord. The last 4 times, it is played in two groups of "doubles". That is to say that you repeat the riff immediately.


    Am                                 Em       Am
E-----------------------------------------------------------
B----------5----------------5-------------------------------
G-------5-----7----5-----5-----7--4-----------4-------------
D----7----------------7--------------5-----5-----7----------
A---------------------------------------7-------------------
E-----------------------------------------------------------

Re-iteration

Am
E-----------------------------------------------------------
B----------5------------------------------------------------
G-------5-----7----5----------------------------------------
D----7------------------------------------------------------
A-----------------------------------------------------------
E-----------------------------------------------------------

   G#-7
E-----------7-10--7--------7--------------------------------
B--------9-----------9--------9--------9--------------------
G--7--10----------------10------10--7-----10-7--------------
D-----------------------------------------------9-----------
A-----------------------------------------------------------
E-----------------------------------------------------------


Once again, play this riff 2 times, as a double, as described above.

    Am                                 Em       Am
E-----------------------------------------------------------
B----------5----------------5-------------------------------
G-------5-----7----5-----5-----7--4-----------4-------------
D----7----------------7--------------5-----5-----7----------
A---------------------------------------7-------------------
E-----------------------------------------------------------

    Am
E-----------------------------------------------------------
B----------5------------------------------------------------
G-------5-----7----5----------------------------------------
D----7------------------------------------------------------
A-----------------------------------------------------------
E-----------------------------------------------------------

   G#-7
E-----------7-10--7--------7--------------------------------
B--------9-----------9--------9--------9--------------------
G--7--10----------------10------10--7-----10-7--------------
D-----------------------------------------------9-----------
A-----------------------------------------------------------
E-----------------------------------------------------------

   A#-7
E-----------9-12--9--------9--------------------------------
B--------11----------11------11-------11--------------------
G--9--12----------------12------12--9-----12-9--------------
D-----------------------------------------------11----------
A-----------------------------------------------------------
E-----------------------------------------------------------

This is the same as segment 5.

   Em                    G             F#m
E---------------------|--17--14-----------------------------
B-------------12--15--|---------15-----17--14---------------
G---------12----------|------------16-----------------------
D--12^14--------------|-------------------------------------
A---------------------|-------------------------------------
E---------------------|-------------------------------------

   F               Em
E--15--12---------------------------------------------------
B----------13------15--12-----------------------------------
G--------------14----------12-------------------------------
D------------------------------14---------------------------
A-----------------------------------------------------------
E-----------------------------------------------------------
    Dm                Em              D                  A
E-----------------------------------------------------------
B-----------------------------------------------------------
G---14--11-------------12--9--------------------------------
D-----------12----------------10-------12--9----------------
A---------------14----------------12----------10------10^12-
E-------------------------------------------------12--------


Ending

RA Tab Support Audio (44K)
Tab Support Audio (slip9.mid)


     A   Cmaj7                A
E----0----0-------------------------------------------------
B----2----0------13^14---12---10----------------------------
G----2----0-------------------------------------------------
D----2----2------13^14---12---11----------------------------
A----0----3-------------------------------------------------
E-----------------------------------------------------------

This File contains merely an interpretation of the represented musical piece.
It is not intended to replace any commercially available publishing, nor is it
guaranteed to represent an exact transcription of any commercially or otherwise released
piece.

Ed Bick's Tab Archive, 1997