View Albums
Learn more on how to play the Grateful Dead by using the rukind.com forums Rosa Lee McFall

Rosa Lee McFall

Reckoning

(Traditional)


General Rules On Chord Charts

Intro

Main Riff

(^) Slide Up  (\) Slide Down  (h) Hammer On  (p) Pull Off  (b) Bend

MP3 Tab Support Audio (34K)

MIDI Tab Support Audio (rosalee.mid)

E-----------------------------|------------------------------
B-----------------------------|------------5-----------------
G-------4----4--4h6--4--------|------4--6----6-----4---------
D--4h6------------------6-----|---6-------------6------------
A--------------------------7--|------------------------------
E-----------------------------|------------------------------

E-------------------------------------|----------------------
B--------5----5----5------------------|----------------------
G--4--6----6----6-----6----4h6p4------|---6--4-----4--6------
D--------------------------------6----|---------6--------6---
A----------------------------------7--|---------------------7
E-------------------------------------|----------------------

Return To Base

This File contains merely an interpretation of the represented musical piece.
It is not intended to replace any commercially available publishing, nor is it
guaranteed to represent an exact transcription of any commercially or otherwise released
piece.
Ed Bick's Tab Archive