View Albums
Learn how to play New Potato Caboose on the rukind.com forums New Potato Caboose

New Potato Caboose

New Potato Caboose

Anthem Of The Sun

(Lesh/Peterson)

 Last Updated 02/16/97

General Rules On Chord Charts

Intro 1
Intro 2
D7 D7 Last leaf fallen bare earth where green was born, F G F/A C G
D7 Black Madonna two eagles hang against a cloud, C#m
C#m A Sun comes up blood red wind yells among the stone, Bb Gm All graceful instruments All graceful instruments F G F/A C G D7 Are kno-own. D7 When the windows all are broken D7 And your love's become a toothless crone, D7 A D/A (4X) When the voices of the storm sound like a crowd, A G9 D Winter morning breaks, you're all alo-one. Jerry - The Eyes Are Blind
D7 The eyes are blind, blue visions, are all a seer can own, D7 And touching makes the flesh to cry out loud E7 This ground on which the seed of love is sown, D7sus4 G/D D Alllllllllllllllllllllllllll graceful! (All graceful instruments are known).

Intro 1

(^) Slide Up  (\) Slide Down  (h) Hammer On  (p) Pull Off  (b) Bend

MP3 Tab Support Audio (11K)

MIDI Tab Support Audio (npc1.mid)

E--------3--2--0--------0-----------------------------------
B--------1--1--1---1h3-----1p0------------------------------
G-------------------------------2---------------------------
D----0------------------------------------------------------
A-----------------------------------------------------------
E-----------------------------------------------------------

Return To Base

Intro 2

(^) Slide Up  (\) Slide Down  (h) Hammer On  (p) Pull Off  (b) Bend

MP3 Tab Support Audio (9K)

MIDI Tab Support Audio (npc2.mid)

E-------3---2---3---5---3-----------------------------------
B-------1---1---1-------------------------------------------
G-------2---2---2-------------------------------------------
D---0-------------------------------------------------------
A-----------------------------------------------------------
E-----------------------------------------------------------

Return To Base

F G F/A C G

(^) Slide Up  (\) Slide Down  (h) Hammer On  (p) Pull Off  (b) Bend

MP3 Tab Support Audio (10K)

MIDI Tab Support Audio (npc3.mid)

E----5--3---1--0----3---2h3p2-------------------------------
B------------------------------3----------------------------
G----5--4---2--0----4---------------------------------------
D-----------------------------------------------------------
A-----------------------------------------------------------
E-----------------------------------------------------------

Return To Base

C#m Riff

(^) Slide Up  (\) Slide Down  (h) Hammer On  (p) Pull Off  (b) Bend

MP3 Tab Support Audio (15K)

MIDI Tab Support Audio (npc4.mid)

E----------------------------|------------------------------
B----------------------------|------------------------------
G----------------------------|------------------------------
D---4p2-----2-----4p2-----2--|--4p2-----2-----4p2-----2-----
A--------4-----4-------4-----|-------4-----4-------4--------
E----------------------------|------------------------------

Return To Base

J - Eyes Are Blind

(^) Slide Up  (\) Slide Down  (h) Hammer On  (p) Pull Off  (b) Bend

MP3 Tab Support Audio (32K)

MIDI Tab Support Audio (npc5.mid)

    3x                                 After 3rd time

E---14---12---10h12--10----8h10--8--|--2h3--2---------------
B-----------------------------------|-----------------------
G---14---12---11-----11----9-----9--|--2--------------------
D-----------------------------------|-----------------------
A-----------------------------------|-----------------------
E-----------------------------------|-----------------------

Return To Base

This File contains merely an interpretation of the represented musical piece.
It is not intended to replace any commercially available publishing, nor is it
guaranteed to represent an exact transcription of any commercially or otherwise released
piece.

Ed Bick's Tab Archive, 1997