View Albums
Learn how to play Lazy River Road on the rukind.com forums Lazy River Road

Lazy River Road

Lazy River Road

None

(Garcia/Hunter)

 Last Updated 08/30/96

General Rules On Chord Charts

Some Chords you might need
Intro
G D/F# G Way down upon Sycamore Slough C G A white man sings the blues Trill
G D/F# G Selling roses of paper mache C D D# And flecks of starlight dew Em D I swiped a bunch and threw them your way C Bm Down where hazy moonlight glows C G A7-9 C G Way down, down along Lazy River Road Way down upon Shadowfall Ward End of the avenue Run, hide, seek in your own backyard Mama's backyard won't do All night long I sing love's sweet songs Down where the water flows Way down, down along lazy river road Am D D# Moonlight wanes where hound dogs bay Em B7 Em Never quite catch the tune Am D D# Stars fall down in buckets like rain Em B7 Em Till there ain't no standin' room Am B7 Bright blue boxcars train by train Am B7 Clatter while dreams unfold Em Dm C G Way down, down along lazy river road Way down upon Seminole Square Belly of the river tide Call for me and I will be there For the price of a taxi ride Nighttime double clutches into the day Like a truck downshifting it's load Way down, down along lazy river road Thread the needle right through the eye The thread that runs so true All the others I let pass by I only wanted you Never cared much for careless love Oh how your bright eyes glow Way down, down along lazy river road

Unusual Chords

(^) Slide Up  (\) Slide Down  (h) Hammer On  (p) Pull Off  (b) Bend

            D/F#                   A7-9
 1|---|---|---|---|---|  1|---|---|---|---|---|
  |   |   |   |   |   |   |   |   |   |   |   |
  |---|---|---|---|---|   |---|---|---|---|---|
  X   |   |   X   |   |   |   |   X   |   X   |
  |---|---|---|---|---|   |---|---|---|---|---|
  |   |   |   |   X   |   |   |   |   X   |   X
  |---|---|---|---|---|   |---|---|---|---|---|
  |   |   |   |   |   |   |   |   |   |   |   |
  |---|---|---|---|---|   |---|---|---|---|---|

Return To Base

Intro

(^) Slide Up  (\) Slide Down  (h) Hammer On  (p) Pull Off  (b) Bend

MP3 Tab Support Audio (28K)

MIDI Tab Support Audio (lzyrvr1.mid)

E-----------------------------------------------------------
B------------0--0--------------------3----------------------
G------0-----------2p0-----2--2--2------4--2----------------
D------0----------------2-----------------------------------
A-----------------------------------------------------------
E---3-------------------------------------------------------

E-----------------------3---------------3-------------------
B----3^5--3--2--1-------0-------3--1----0-------------------
G-----------------------0-----------------------------------
D----3^5--4--2--1-------0-------4--1------------------------
A-----------------------------------------------------------
E-------------------3-------------------3-------------------

Return To Base

Trill

(^) Slide Up  (\) Slide Down  (h) Hammer On  (p) Pull Off  (b) Bend

MP3 Tab Support Audio (6K)

MIDI Tab Support Audio (lzyrvr2.mid)

E----5--6--7------------------------------------------------
B-----------------------------------------------------------
G----5--6--7------------------------------------------------
D-----------------------------------------------------------
A-----------------------------------------------------------
E-----------------------------------------------------------

Return To Base

This File contains merely an interpretation of the represented musical piece.
It is not intended to replace any commercially available publishing, nor is it
guaranteed to represent an exact transcription of any commercially or otherwise released
piece.

Ed Bick's Tab Archive, 1997