View Albums
Learn more on how to play the Grateful Dead by using the rukind.com forums If I Had The World To Give

If I Had The World To Give

Shakedown Street

(Garcia/Hunter)

 Last Updated 03/31/96

General Rules On Chord Charts

Some Chords You Might Need
Intro
C F C/E Dm If I had the world to give, G C I'd give it to you long as you live, E Am G F C G7 C Would you let it fall, or hold it all in your arms? C F C/E Dm If I had a song to sing, G C I'd sing it to you as long as you live, E Am G F Lullaby or maybe a plain serenade Am G F C Wouldn't you laugh, dance, and cry or be afraid C7 At the change you made Fmaj7 Bbmaj9 I may not have the world to give to you Fmaj7 Bbmaj9 But maybe I have a tune or two Fmaj7 Bbmaj9 Only if you let me be your world Abmaj7/C Bb C Could I ever give this world to you Abmaj7/C Bb C Could I ever give this world to you G C/G Fsus4 F But I will give what love I have to give, G C/G Fsus4 F I will give what love I have to give, G C/G Fsus4 F C I will give what love I have to give, long as I live. C F C/E Dm If I had a star to give, G C I'd give it to you long as you live, E Am Would you have the time G F To watch it shine, watch it shine Am G F C C7 Or ask for the moon and heaven too? I'd give it to you. Fmaj7 Bbmaj9 Well maybe I've got no star to spare, Fmaj7 Bbmaj9 Or anything fine or even rare, Fmaj7 Bbmaj9 Only if you let me be your world, Abmaj7/C Bb C Could I ever give this world to you. Abmaj7/C Bb C Could I ever give this world to you.

Unusual Chords

(^) Slide Up  (\) Slide Down  (h) Hammer On  (p) Pull Off  (b) Bend

        Abmaj7/C                    C/E                    Bbmaj9
 1|---|---|---|---|---|  1|---|---|---|---|---|  1|---|---|---|---|---|
  |   |   X   X   X   |   |   |   |   |   X   |   |   X   |   |   X   X
  |---|---|---|---|---|   |---|---|---|---|---|   |---|---|---|---|---|
  |   |   |   |   |   |   |   |   X   |   |   |   |   |   |   X   |   |
  |---|---|---|---|---|   |---|---|---|---|---|   |---|---|---|---|---|
  |   X   |   |   |   X   |   |   |   |   |   X   |   |   |   |   |   |
  |---|---|---|---|---|   |---|---|---|---|---|   |---|---|---|---|---|
  |   |   |   |   |   |   |   |   |   |   |   |   |   |   |   |   |   |
  |---|---|---|---|---|   |---|---|---|---|---|   |---|---|---|---|---|

Return To Base

Intro

(^) Slide Up  (\) Slide Down  (h) Hammer On  (p) Pull Off  (b) Bend

MP3 Tab Support Audio (39K)

MIDI Tab Support Audio (ifihad.mid)

                Abmaj7/C   Bb     C
E---0--------------------------------|----------------------
B------3--1--3--4--3-------1---------|----------------------
G-----------------------------1---0--|----------------------
D------------------------------------|---3--2--0--3--2------
A------------------------------------|----------------------
E------------------------------------|----------------------

Return To Base

This File contains merely an interpretation of the represented musical piece.
It is not intended to replace any commercially available publishing, nor is it
guaranteed to represent an exact transcription of any commercially or otherwise released
piece.

Ed Bick's Tab Archive, 1997