View Albums
Learn how to play Help On The Way on the rukind.com forums Help On The Way

Help On The Way

Help On the Way/Slip Knot!

Blues For Allah

(Garcia/Hunter)

 Last Updated 08/23/96

General Rules On Chord Charts

Intro
Fm Verse in tab form
Fm Cm Fm Fm Eb Dm- Paradise Waits, on the crest of a wave, her angels in flame. Fm Cm Fm Fm Eb Fm She has no pain, like a child she is pure, she is not to blame. Poised for flight, wings spread bright, spring from night into the sun. Fm Cm Fm Fm Eb Fm Don't stop to run, she can fly like a lie she can't be outdone. Tell me the cost, I can pay let me go, tell me love is not lost. Sell everything, without love day to day insanity's king. I will pay, day by day, anyway, lock, bolt, and key. Crippled but free, I was blind all the time I was learning to see. Help on the way, well, I know only this, I've got you today. Don't fly away, 'cause I love what I love, and I want it that way. I will stay, one more day, like I say, honey, it's you. Makin' it too, without love in the dream it will never come true Slipknot!

Intro

(^) Slide Up  (\) Slide Down  (h) Hammer On  (p) Pull Off  (b) Bend

MP3 Tab Support Audio (0K)

MIDI Tab Support Audio (help1.mid)

The odd bars (with the Fm chord) are the guitar part.  The even bars are
Phil's bass line.

E---8---8-------8---8---------------------------------------
B---9---9-------9---9---------------------------------------
G---10--10------10--10--------------------------------------
D---10--10------10--10--------------------------------------
A---8---8-------8---8---------------------------------------
E-----------------------------------------------------------

E----------------------------------------------------------
B----------------------------------------------------------
G----------------------------------------------------------
D-------------------------------------------6p5------------
A-----------------------6h8--6-----------8-------8---------
E-------------------6h8----------8--6h8--------------------

E---8---8-------8---8---------------------------------------
B---9---9-------9---9---------------------------------------
G---10--10------10--10--------------------------------------
D---10--10------10--10--------------------------------------
A---8---8-------8---8---------------------------------------
E-----------------------------------------------------------

E----------------------------------------------------------
B----------------------------------------------------------
G----------------------------------------------------------
D----------------------------------------------------------
A-----------------------6h8--6---5-----3p1----4------------
E-------------------6h8------------------------------------

E---8---8-------8---8---------------------------------------
B---9---9-------9---9---------------------------------------
G---10--10------10--10--------------------------------------
D---10--10------10--10--------------------------------------
A---8---8-------8---8---------------------------------------
E-----------------------------------------------------------

E-----------------------------------------------------------
B-----------------------------------------------------------
G------------------------8h10-8-----------10--13p12--10-----
D-------------------8h10---------10-8h10--------------------
A-----------------------------------------------------------
E-----------------------------------------------------------

E---8---8-------8---8---------------------------------------
B---9---9-------9---9---------------------------------------
G---10--10------10--10--------------------------------------
D---10--10------10--10--------------------------------------
A---8---8-------8---8---------------------------------------
E-----------------------------------------------------------

E-----------------------------------------------------------
B-----------------------------------------------------------
G------------------------8h10-8--7--5p3--6------------------
D-------------------8h10------------------------------------
A-----------------------------------------------------------
E-----------------------------------------------------------

Return To Base

Verse Tab

(^) Slide Up  (\) Slide Down  (h) Hammer On  (p) Pull Off  (b) Bend

MP3 Tab Support Audio (25K)

MIDI Tab Support Audio (help2.mid)

E--------------------8-----------------------------------8--
B--------------------9-----------------------------------8--
G----------5---------10----------------------5-----------8--
D---3^5--6---8--5----10--------------3^5--6-----8--5-----10-
A--------------------8--------------------------------6--10-
E--------------------------------------------------------8*-
                     Paradise waits
                                 **                   Fm Eb Dmin-
E----10--10--10---8--8--8----8-------------4----------------
B----11--11--11---8--8--8----8---6---6-----6----------------
G----12--12--12---8--8--8----8---7---7-----5----------------
D--------------------------------8---8-----6----------------
A--------------------------------8---8-------------6-7-8-6-5
E--------------------------------6---6-----------8----------
     On the crest of a wave, her angels in flame

** Play this like a Bb, just don't hit the high string.

           Dmin-
  X                   X
 4|---|---|---|---|---|
  |   |   |   |   |   |
  |---|---|---|---|---|
  |   X   |   X   |   |
  |---|---|---|---|---|
  |   |   X   |   X   |
  |---|---|---|---|---|
  |   |   |   |   |   |
  |---|---|---|---|---|


E--------------------8-----------------------------------8--
B--------------------9-----------------------------------8--
G----------5---------10----------------------5-----------8--
D---3^5--6---8--5----10--------------3^5--6-----8--5-----10-
A--------------------8--------------------------------6--10-
E--------------------------------------------------------8*-
                     She has no pain
                                                       Fm Eb Fm
E---10--10--10---8---8--8------------------4----------------
B---11--11--11---8---8--8--------6--6------6----------------
G---12--12--12---8---8--8--------7--7------5----------------
D--------------------------------8--8------6----------------
A--------------------------------8--8--------------6-7-8-6-8
E--------------------------------6--6------------8----------
    Like a child she is pure she is not to blame

MP3 Tab Support Audio (25K)
Tab Support Audio (help3.mid)

E-----------------------------|-----------------------------
B------------6------4---3-----|-3-----3---6-----4------3----
G--------5--------------------|----5------------------------
D-----6------6------5---3-----|-----------6-----5------3----
A--8--------------------------|-----------------------------
E-----------------------------|-----------------------------
             poised for flight           wings spread bright

E------------------------------3-3--1--------3--3---3--3---3
B--------3----4-----3----1--------------4----1--1---1--1---1
G-----5--------------------------------------1--1---1--1---1
D--6----------5-----3----1-------------------3--3---3--3---3
A---------------------------------------3----3--3---3--3---3
E--------------------------------------------1--1---1--1---1
             spring from night into the sun

E--------------------8-----------------------------------8--
B--------------------9-----------------------------------8--
G----------5---------10----------------------5-----------8--
D---3^5--6---8--5----10--------------3^5--6-----8--5-----10-
A--------------------8--------------------------------6--10-
E--------------------------------------------------------8*-
                     Don't stop to run
                                                       Fm Eb Fm
E---10--10--10---8---8--8-------------------4---------------
B---11--11--11---8---8--8--------6----6-----6---------------
G---12--12--12---8---8--8--------7----7-----5---------------
D--------------------------------8----8-----6---------------
A--------------------------------8----8------------6-7-8-6-8
E--------------------------------6----6----------8----------
    She can fly like a lie, she can't be outdone

* Emphasis


Return To Base

This File contains merely an interpretation of the represented musical piece.
It is not intended to replace any commercially available publishing, nor is it
guaranteed to represent an exact transcription of any commercially or otherwise released
piece.

Ed Bick's Tab Archive, 1997