View Albums
Learn how to play Foolish Heart on the rukind.com forums Foolish Heart

Foolish Heart

Foolish Heart

Built To Last

(Garcia/Hunter)

 Last Updated 05/23/96

General Rules On Chord Charts

Some Chords You Might Need
Intro
Bm D F#m Carve your name, carve your name in ice and wind Bm D A Search for where, search for where the rivers end, E D Or where the rivers start E F#m Do everything that's in you you feel to be your part, Bm Bm7/A Gmaj7 Never give your love my friend, D A Unto a foolish heart, unto a foolish heart. Dare to leap, leap from ledges high and wild, Learn to speak, speak with the wisdom of a child, Directly to the heart Call yourself the king of clowns or stand way back apart, But never give your love my friend, Unto a foolish heart, unto a foolish heart. Shun a friend, shun a brother and a friend Never look, never look around the bend, Or check the weather chart Sign the Mona Lisa with a spray can, call it art, But never give your love, my friend, Unto a foolish heart, unto a foolish heart A#

MP3 Tab Support Audio (54K)
Tab Support Audio For The Bridge (foolish2.mid)


  Bsus4              B              Bsus4             B
A foolish heart will call on you to toss your dreams away,
     Bsus4/A         B/A               Bsus4/A       B/A
Then turn around and blame you for the way you went astray
  G#m                C#m7-5
A foolish heart will cost you sleep and only make you curse,
   F#7sus4         F#7            F#7sus4          F#7-9
A selfish heart is trouble, but a foolish heart is worse.

D/E     E

Bite the hand, bite the hand that bakes your bread
Dare to lead where the angels fear to tread,
Till you are torn apart
Stoke the fires of Paradise with coals from Hell to start
But never give your love my friend,
Unto a foolish heart, unto a foolish heart
Unto a foolish heart,
Unto a foolish heart,
Unto a foolish heart,
Unto a foolish heart,
Unto a foolish heeaaaarrrrt.....

Unusual Chords

(^) Slide Up  (\) Slide Down  (h) Hammer On  (p) Pull Off  (b) Bend

         Bsus4/A                  C#m7-5                  F#7sus4
 4|---|---|---|---|---|  4|---|---|---|---|---|   |---|---|---|---|---|
  |   |   X   X   |   |   |   X   |   X   |   |   |   |   |   |   |   |
  |---|---|---|---|---|   |---|---|---|---|---|   |---|---|---|---|---|
  |   |   |   |   X   |   |   |   X   |   X   |   X   |   X   |   X   X
  |---|---|---|---|---|   |---|---|---|---|---|   |---|---|---|---|---|
  |   |   |   |   |   |   |   |   |   |   |   |   |   |   |   |   |   |
  |---|---|---|---|---|   |---|---|---|---|---|   |---|---|---|---|---|
  |   |   |   |   |   X   |   |   |   |   |   |   |   X   |   X   |   |
  |---|---|---|---|---|   |---|---|---|---|---|   |---|---|---|---|---|

           F#7-9       or         F#7-9                    D/E
  |---|---|---|---|---|  7|---|---|---|---|---|   |---|---|---|---|---|
  |   |   |   |   |   |   |   |   |   |   |   |   |   |   |   |   |   |
  |---|---|---|---|---|   |---|---|---|---|---|   |---|---|---|---|---|
  |   |   X   |   X   |   |   |   X   |   X   |   |   |   X   X   |   |
  |---|---|---|---|---|   |---|---|---|---|---|   |---|---|---|---|---|
  X   |   |   X   |   |   |   |   |   X   |   X   |   |   |   |   X   |
  |---|---|---|---|---|   |---|---|---|---|---|   |---|---|---|---|---|
  |   |   |   |   |   |   |   |   |   |   |   |   |   |   |   |   |   |
  |---|---|---|---|---|   |---|---|---|---|---|   |---|---|---|---|---|

          Bm7/A
  |---|---|---|---|---|
  |   |   |   |   |   |
  |---|---|---|---|---|
  |   |   |   X   |   X
  |---|---|---|---|---|
  |   |   |   |   |   |
  |---|---|---|---|---|
  |   |   |   |   |   |
  |---|---|---|---|---|

Return To Base

Brent Intro

(^) Slide Up  (\) Slide Down  (h) Hammer On  (p) Pull Off  (b) Bend

MP3 Tab Support Audio (20K)

MIDI Tab Support Audio (foolish1.mid)

MIDI file both Brent & Jerry Parts

E----------------------------------------------------------
B----------------------------------------------------------
G-------------------------------11-----------------14-14---
D-------------------11-12-14-11----14-11----12--14---------
A----------------------------------------12----------------
E----------------------------------------------------------

Return To Base

Jerry Intro

(^) Slide Up  (\) Slide Down  (h) Hammer On  (p) Pull Off  (b) Bend

MP3 Tab Support Audio (20K)

MIDI Tab Support Audio (foolish1.mid)

MIDI file both Brent & Jerry Parts

E-----------------------------------------------------------
B-----------------------------------------------------------
G-----------------------------------------------------------
D------11^12--11--------------------------------------------
A--12-------------------------------------------------------
E-----------------------------------------------------------

Then Brent Part, then


E-----------------------------------------------------------
B-----------------------------------------------------------
G------------------11------11--13--14-----------------------
D---12p11--12--14------14-----------------------------------
A-----------------------------------------------------------
E-----------------------------------------------------------

Return To Base

This File contains merely an interpretation of the represented musical piece.
It is not intended to replace any commercially available publishing, nor is it
guaranteed to represent an exact transcription of any commercially or otherwise released
piece.

Ed Bick's Tab Archive, 1997