Intro & Lick leading to solo - Now W/Vids

Intro & Lick leading to solo - Now W/Vids

Postby Billbbill » Fri Oct 29, 2004 10:30 pm

From 7-2-88 - How I hear it anyway. (an especially hot Jack!)

Intro: Just the opening lick - the rest of the intro is freelance!

``E
e------------------------------
b-9-----------------------------
g--11-9---------------------------
d------11-9-11-9---------------------
a---------------12-11--------------
e------------------------------

FYI - EVERYTHING BELOW HERE IN THIS POST IS UPDATED BELOW WITH A FEW CHANGES

Lick over "I just jumped the watchman..."

```````````` E7sus4 E7 `````````` E7sus4 E7
e-------------0-----0---------------0-----0-
b-------------5-----5---------------5-----5-
g-------------7-----7---------------7-----7-
d-6-6h7-6-4-6>7-----6---6-6h7-6-4-6>7-----6-
a-------------7-----7---------------7-----7-
e-------------0-----0---------------0-----0-

Repeat the above.

Lick over "Hurts my ears..."

E7 ``F#7sus4 `F#7``````F#7sus4 ````F#7
e-----------------------------------
b-----------9-12-11-9--11-9-11-9-11-12-11-9-----
g--------------------9---------------------9---
d-------9h11----------9---------------------9--
a-7-8-9----------------------------------------
e----------------------------------------------

```F#7sus4 ``` F#7``````F#7sus4 ```````D``````` Bm ```A```````````E
e-----------------------------------------------------------
b-11-9-11-9-11-12-11-9---11-9-11-9-11--------12-10--10--10--9-----9
g---------------------9--------------------11-----------9-----11--9
d----------------------9--------------11>12-------12--11---9-9--9-9
a----------------------------------------------
e----------------------------------------------

I can't vouch for positioning, it's where I play it.
Any questions, speak.
Last edited by Billbbill on Fri Nov 02, 2007 10:57 am, edited 2 times in total.
User avatar
Billbbill
Senior Member
 
Posts: 1783
Joined: Wed Aug 18, 2004 6:44 pm
Location: Southern Westchester NY

Postby Billbbill » Wed Sep 26, 2007 3:09 pm

Instead of editing I'm opting to repost an addition and a couple of changes.


Above was the jg lick and here's how I hear bob's intro lick - from 5-8-84 on youtube here

http://youtube.com/watch?v=rCLUaK-aud0

although you can't see anything at the intro the sound is pretty clear.

--E
e------------------------------
b------------------------------
g--4----------------------------
d----7-6-4-6h7-4h6--------------
a------------------7------------
e------------------------------

OK now above (1st post) on this I'm a bit off. First off there is no F# (4 on th D) as far as I can see (although not from this above video although you can tell from others). And jg appears to play just a 2 note chord when he hits more than one note.

Lick over "I just jumped the watchman..."

--E---------E7sus4-----E7---4X
e----------------------------
b----------------------------
g----------------------------
d--6-6h7po6--6-7--7--7--6----
a-----------7-----7--7--7----
e-------------------------


This I'm just changing the 9 on the D (B) to the 11 (C#) and the end is as true as I can get it to 7-2-88

http://www.archive.org/details/gd88-07- ... sbeok.shnf

Figured I'd plop in this link as well - and I did adjust the very end of the line as well.


Lick over "Hurts my ears..."

E7--F#7sus4--F#7--------F#7sus4-----F#7
e-----------------------------------
b-----------9-12-11-9---11-9-11-9-11-12-11-9-----
g--------------------9----------------------9---
d-------9h11----------11---------------------11--
a-7-8-9----------------------------------------
e----------------------------------------------

-F#7sus4-------F#7-------F#7sus4-----D----------Bm----A---------------E
e-----------------------------------------------------------
b-11-9-11-9-11-12-11-9---11-9-11-9-11--------12-10--10-------10-9-----9
g---------------------9--------------------11---------------9-----11--9
d----------------------11-------------11>12-------12--12po11---9-9--9-9
a----------------------------------------------
e----------------------------------------------

For some reason I'm not showing pulloffs and hammers between the 9 and 11 on the B - there are a bunch. I couldn't find even a remotely decent vid of this second portion.
Last edited by Billbbill on Sat Sep 29, 2007 7:08 am, edited 2 times in total.
User avatar
Billbbill
Senior Member
 
Posts: 1783
Joined: Wed Aug 18, 2004 6:44 pm
Location: Southern Westchester NY

Postby Billbbill » Wed Sep 26, 2007 3:19 pm

Here's that other lick from a js lead that we were yakkin about in a different thread


in this Jack Straw @ 3:57:

http://www.archive.org/details/gd90-07- ... sbeok.shnf



--E------------------------|----------------------D

e-------16------15------14---------12------11-----10
b--------------------------
g-15pu16--16po15--15po14-----12pu13--13po12-------12

pu=pull up
po=pull off

I changed the end of this slightly
User avatar
Billbbill
Senior Member
 
Posts: 1783
Joined: Wed Aug 18, 2004 6:44 pm
Location: Southern Westchester NY

Postby strumminsix » Wed Sep 26, 2007 4:30 pm

NICE!! I can totally hear the distinction between the 70s cuts and what they are doing in the 80s & 90s!

Thanks!
User avatar
strumminsix
Senior Member
 
Posts: 6655
Joined: Tue Apr 05, 2005 8:13 am
Location: Chicago

Postby Billbbill » Wed Sep 26, 2007 4:42 pm

Yea, as far as those portions of the song go it's like 2 different worlds.

jdarks has a good grip on the 70's era approach on his site.
User avatar
Billbbill
Senior Member
 
Posts: 1783
Joined: Wed Aug 18, 2004 6:44 pm
Location: Southern Westchester NY

Postby strumminsix » Wed Sep 26, 2007 4:59 pm

Right! I'm a big fan of learn a song and play it a few ways.

Some that come to mind:
Cold Rain & Snow
Minglewood
China>Rider transition

etc...
User avatar
strumminsix
Senior Member
 
Posts: 6655
Joined: Tue Apr 05, 2005 8:13 am
Location: Chicago

wow .. this really helps

Postby kenneybonz » Sat Sep 29, 2007 6:58 pm

great stuff .. and both eras too.. thanks folks...!!!
Hipsters, Tripsters, real cool chicksters, Everyone's doin' that rag.
kenneybonz
Billy
Billy
 
Posts: 236
Joined: Sat Jul 28, 2007 4:42 am
Location: richmond va ish

Postby shakedown_04092 » Sun Sep 30, 2007 9:13 am

Thanks Bill! Great stuff. Only problem I am having is that when we play this, I usually sing it, but man! Those licks sure are fun to play, so I think on Tuesday I'm gonna see if one of the other guys can take the vocals so I can just noodle away! :cool:

Thanks again!
Play music, expand the mind, inspire...

"We must embrace pain and burn it as fuel for our journey" - Japanese poet Kenji Miyazawa

www.myspace.com/heavydime

Image
shakedown_04092
Senior Member
 
Posts: 1225
Joined: Sun May 22, 2005 11:51 am
Location: Portland, ME

Postby phpbb » Fri Nov 02, 2007 6:35 am

User avatar
phpbb
Senior Member
 
Posts: 1034
Joined: Fri May 07, 2004 9:37 pm

Postby st. stephen » Fri Nov 02, 2007 8:00 am

very nice, thanks =)
btw what kind of guitar is that?
Could jesus microwave a burrito so hot that he himself could not eat it?
-Homer Simpson-
st. stephen
Mickey
Mickey
 
Posts: 180
Joined: Tue Jan 09, 2007 2:22 pm
Location: stuttgart, germany

Postby shakedown_04092 » Fri Nov 02, 2007 9:26 am

Nice work Bill! Wish I Was there jamming along with ya!
Play music, expand the mind, inspire...

"We must embrace pain and burn it as fuel for our journey" - Japanese poet Kenji Miyazawa

www.myspace.com/heavydime

Image
shakedown_04092
Senior Member
 
Posts: 1225
Joined: Sun May 22, 2005 11:51 am
Location: Portland, ME

Postby Billbbill » Fri Nov 02, 2007 10:51 am

st. stephen wrote:very nice, thanks =)
btw what kind of guitar is that?


Schecter classic or C-1 or something like that.
User avatar
Billbbill
Senior Member
 
Posts: 1783
Joined: Wed Aug 18, 2004 6:44 pm
Location: Southern Westchester NY

Postby Billbbill » Fri Nov 02, 2007 10:56 am

shakedown_04092 wrote:Nice work Bill! Wish I Was there jamming along with ya!


Next time we head up to Bahr Hahrbor I'll have to look you up and take a detour. :smile:
User avatar
Billbbill
Senior Member
 
Posts: 1783
Joined: Wed Aug 18, 2004 6:44 pm
Location: Southern Westchester NY

Postby shakedown_04092 » Fri Nov 02, 2007 7:16 pm

Billbbill wrote:
shakedown_04092 wrote:Nice work Bill! Wish I Was there jamming along with ya!


Next time we head up to Bahr Hahrbor I'll have to look you up and take a detour. :smile:


Oh most defintely!!! :cool: :cool: :cool:
Play music, expand the mind, inspire...

"We must embrace pain and burn it as fuel for our journey" - Japanese poet Kenji Miyazawa

www.myspace.com/heavydime

Image
shakedown_04092
Senior Member
 
Posts: 1225
Joined: Sun May 22, 2005 11:51 am
Location: Portland, ME

Postby ronster » Fri Nov 02, 2007 8:49 pm

Bill
Most excellent, nice axe. Your an insperation. I'm gonna get me that webcam.
ronster
Bobby
Bobby
 
Posts: 370
Joined: Tue Feb 13, 2007 6:12 pm
Location: Palm coast Florida

Next

Return to Jack Straw

Who is online

Users browsing this forum: No registered users and 0 guests