Dupree's Diamond Blues - Vid - billbbill

Dupree's Diamond Blues - Vid - billbbill

Postby Billbbill » Thu Oct 28, 2010 4:04 pm

So I rushed the intro a bit - oh well - this wasn't easy! :-)

User avatar
Billbbill
Senior Member
 
Posts: 1780
Joined: Wed Aug 18, 2004 6:44 pm
Location: Southern Westchester NY

Re: Dupree's Diamond Blues - Vid - billbbill

Postby deadguise » Fri Oct 29, 2010 8:05 pm

Great job Bill, I like the take on the chorus part.
User avatar
deadguise
Senior Member
 
Posts: 589
Joined: Tue Mar 14, 2006 8:47 pm
Location: CA Bay Area

Re: Dupree's Diamond Blues - Vid - billbbill

Postby Billbbill » Sat Oct 30, 2010 9:43 pm

deadguise wrote:Great job Bill, I like the take on the chorus part.


thanks dg - here's some chorus tab I posted on a different ddb thread before doing the vid - I show the suggestion of tigerstrat at the bottom as an alternative to the way I have it tabbed originally - I play it both ways in the vid -though it, along with some other stuff could have been a bit cleaner! 8)

Code: Select all

(/) Slide Up  (\) Slide Down  (h) Hammer On  (p) Pull Off  (b) Bend (r) Release (v) Vibrato

    W Y K  S      Y   J  C  Figure F T Y  K  Y Gonna 
E|---------3----------3--2-------
B|--3\2/3--3--3\2/3---3--3--5--3---5\4/5--5--5\4/5------
G|--4\3/4-----4\3/4---4--4--4--4---5\4/5--5--5\4/5---------
D|--5\4/5-----5\4/5---5-----5--5---7\6/7-----7\6/7--------
A|--------
E|--------

      Pull   that    Trig- ger
E|-----------------------------
B|----8--8---7--7----5-5---4-4--------
G|----9--9---9--9----5-5---5-5----
D|---10-10--10-10----7-7---7-7--------
A|--------
E|--------

       A I N   Wonder G F# F E    Am D G
E|-------------3-------------
B|-----3\2/3---3--3---3-2-1-0----------
G|-----4\3/4------4---4-3-2-1--------
D|-----5\4/5------5---5-4-3-2------
A|--------
E|--------

Alternate suggestion from tigerstrat (if I understood him correctly!) - I think I like this better

      Pull   that    Trig- ger
E|-----------------------------
B|----8--8---7--7----5-5---4-4--------
G|----5--5---5--5----5-5---5-5----
D|----7--7---7--7----7-7---7-7--------
A|--------
E|--------




User avatar
Billbbill
Senior Member
 
Posts: 1780
Joined: Wed Aug 18, 2004 6:44 pm
Location: Southern Westchester NY


Return to Dupree's Diamond Blues

Who is online

Users browsing this forum: No registered users and 0 guests