intro into the other one

intro into the other one

Postby hippie_pat » Mon Dec 26, 2005 4:05 pm

anyone know how to play the jerry lick that usually follows phil's bomb?
hippie_pat
welcome
welcome
 
Posts: 1
Joined: Mon Dec 26, 2005 4:02 pm

Postby b weird » Wed Jun 28, 2006 3:32 pm

Here maybe this helps. Peace. |-------------------------------------------------|
|-12----------------------------------------------|
|----14p12----14----12-14p12----12----------------|
|----------14----14----------14----14p12----12h14-|
|----------------------------------------14-------|
|-------------------------------------------------|
|-------15-15--------17-17-|
|-16h17--------16h17-------|
|--------------------------|
|--------------------------|
|--------------------------|
|--------------------------|
User avatar
b weird
Senior Member
 
Posts: 713
Joined: Sat Apr 01, 2006 8:09 am


Return to Other One, The

Who is online

Users browsing this forum: No registered users and 0 guests