Lick addition for extended intro

Lick addition for extended intro

Postby enardi » Thu Aug 27, 2009 9:28 pm

About 40 seconds into the Fillmore Complete recordings 1969: Box set disc 2 Dark Star (could be the one used on the live dead cd, cant seem to find my copy so I cant compare to be sure) I hear this

(/) Slide Up (\) Slide Down (h) Hammer On (p) Pull Off (b) Bend (r) Release (v) Vibrato

E|------------------12------------------------12--14--12--
B|------12--14--15----------------12--14--15--------------
G|--14--------------------12--14--------------------------
D|--------------------------------------------------------
A|--------------------------------------------------------
E|--------------------------------------------------------

E|----------------------12--14--12------------------------12--14--12--
B|----------12--14--15------------------------12--14--15--------------
G|--12--14----------------------------12--14--------------------------
D|--------------------------------------------------------------------
A|--------------------------------------------------------------------
E|--------------------------------------------------------------------

Here you can make your way to back up through the scale towards the main theme
E|----------------------12--14--15--14--12--12--14--15--14--12--
B|----------12--14--15------------------------------------------
G|--12--14------------------------------------------------------
D|--------------------------------------------------------------
A|--------------------------------------------------------------
E|--------------------------------------------------------------

E|--15--14--12--------------------------
B|--------------15--14--12--------------
G|--------------------------14--12------
D|----------------------------------14--
A|--------------------------------------
E|--------------------------------------

Here Return to a variation of the main theme
E|--------------------------------------------------------------------
B|--------------------------------------------------------------------
G|--------------------------------------------------------------------
D|------14--12--14--12--14--------------------14--12--14--12--14------
A|--12----------------------14--12--14----12----------------------14--
E|--------------------------------------------------------------------
http://www.guitartabcreator
Hopefully this is helpful, my tabing leaves alot to be desired but hopefully everyone will be able to get the main idea. the whole portion that I have tabbed should be played fairly quickley but listen to the origional to get the feel. (once again I feel that this particular version was used on the live dead disc but it has been a while since I have listened so I could very well be wrong).
Last edited by enardi on Thu Aug 27, 2009 10:05 pm, edited 2 times in total.
enardi
Keith
Keith
 
Posts: 64
Joined: Tue Jul 07, 2009 9:47 pm

Re: Lick addition for extended intro

Postby enardi » Thu Aug 27, 2009 9:30 pm

Sorry for the tabbing mistake I seem to have completely screwed up haha but if anyone is interested I will retry.
enardi
Keith
Keith
 
Posts: 64
Joined: Tue Jul 07, 2009 9:47 pm

Re: Lick addition for extended intro

Postby tigerstrat » Thu Aug 27, 2009 9:40 pm

The Dark Star would be from 2/27/69, so Disc 2 sounds correct, as it is set II of the 1st night.

I'm not much for working off of tab, but if you want to retry , the Tab Generator linked from the front page works pretty well http://www.guitartabcreator.com/
"There, in huge black letters, was 'The Grateful Dead'. It just... cancelled my mind out."-Garcia
User avatar
tigerstrat
Senior Member
 
Posts: 4628
Joined: Wed Nov 30, 2005 1:20 pm
Location: Portland,OR

Re: Lick addition for extended intro

Postby enardi » Thu Aug 27, 2009 9:46 pm

Ok thanks Tigerstrat i didnt see your post before i redid the tab, but yea ok if i figured it was the one from the live dead cd but wasnt sure thanks for the clarification.
enardi
Keith
Keith
 
Posts: 64
Joined: Tue Jul 07, 2009 9:47 pm


Return to Dark Star

Who is online

Users browsing this forum: No registered users and 0 guests