Good Franklin's intro riff

Good Franklin's intro riff

Postby captain_trip » Wed Jul 21, 2004 12:13 pm

|--------------------(10)----------------------------------------|

|-14--------12------10------------------------------------------|

|-14--------12------11------------------------------------------|

|-14--------12------12------------------------------------------|

|-12--------10------12------------------------------------------|

|--------------------(10)-----------------------------------------|

listen to what version you got to see how many strums to do... on some versions you can hear a few extra notes after the 3 chords, to play that just play the bottom 3 strings for that higher pitched notes.. if you know what I mean, good, if you don't, then don't worry about it.. :) if you want to find a show with that they are alot, i know DP 17's franklin's has it!

these here, (10) 10 11
|--------------------(10)----------------------------------------|

|-14--------12------10------------------------------------------|

|-14--------12------11------------------------------------------|

|-14--------12------12------------------------------------------|

|-12--------10------12------------------------------------------|

|--------------------(10)-----------------------------------------|
captain_trip
 

Return to Franklin's Tower

Who is online

Users browsing this forum: No registered users and 0 guests